Guitar Tabs for History

(/) Slide Up  (\) Slide Down  (h) Hammer On  (p) Pull Off  (b) Bend (r) Release (v) Vibrato (x) Muted

Tabs for Song : 
BPM : 200

Intro
E|--0--------------0-----3-----0-----------------0-----0--------------0-----3-----0--------2-----3--0-----0-----3--2-----0-----------3-----------2-----------0--------------------------0-----------------------------------------0--x-----3--3--3-----0-----0-----3v-------3--3--3-----0-----0-----0v-------xx
B|--1--------1--------1-----1--1-----1--0--3-----0-----1--------1--------1-----1--0--------3-----3--1-----1-----3--3-----1--------0-----0-----0-----0-----0-----0--3--------------------0-----------------------7-----------------0--x-----1--1--1-----1-----3-----1v-------1--1--1-----1-----3-----0v-------
G|--2-----------2--------------0-----------------0-----2-----------2--------------1--------2-----4--0-----0-----4--2-----2-----------------------------------------0--------5--5--5-----0-----------5--------7--------------7-----0--x-----2--2--2-----2-----0-----2v-------2--2--2-----2-----0-----0v-------
D|--2-----2--------------------2-----------------2-----2-----2--------------------2--------0-----5--2-----2-----5--0-----2-----------------------------------------------5-----5--5-----2--------5-----5-----------7-----7-----5--2--x-----2--2--2-----2-----0-----2v-------2--2--2-----2-----------2v-------
A|--0--0-----------------------3--3-----0--2-----2-----0--0-----------------------2--------------5--3-----3-----5--------0-----------------------------------------2--3--------3--3-----2-----3-----------5-----------5-----------2--x-----0--0--0-----0-----0-----0v-------0--0--0-----0-----2-----2v-------
E|-----------------------------------------3-----0--------------------------------0--------------3--------------3--------------3-----------2-----------0-----------3--------------------0-----------------------------------------0--x--------------------------------------------------------3-----0v-------

Chorus- Part 1

E|--0--0--0--0--3--3--3--3--2--2--2--2--0--0--0--0--
B|--0--0--0--0--3--3--3--3--3--3--3--3--1--1--1--1--
G|--0--0--0--0--0--0--0--0--2--2--2--2--0--0--0--0--
D|--2--2--2--2--0--0--0--0--0--0--0--0--2--2--2--2--
A|--2--2--2--2--2--2--2--2--------------3--3--3--3--
E|--0--0--0--0--3--3--3--3--------------------------

Verse- 1

E|--------------------------------------------------------------0--
B|--------------------------------------------------------------0--
G|--------9--------7--------5--5-----------9--------7--------5--0--
D|-----9--------7--------5-----5--------9--------7--------5-----2--
A|--7--------5--------3--------3-----7--------5--------3--------2--
E|--------------------------------------------------------------0--

Chorus- 2

E|--0--0--0--0--3--3--3--3--2--2--2--2--0--0--0--0--
B|--0--0--0--0--3--3--3--3--3--3--3--3--1--1--1--1--
G|--0--0--0--0--0--0--0--0--2--2--2--2--0--0--0--0--
D|--2--2--2--2--0--0--0--0--0--0--0--0--2--2--2--2--
A|--2--2--2--2--2--2--2--2--------------3--3--3--3--
E|--0--0--0--0--3--3--3--3--------------------------

Chorus- 2 continued
E|--0--0--0--0--3--3--3--3--2--2--2--2--0--0--0--0--
B|--0--0--0--0--3--3--3--3--3--3--3--3--1--1--1--1--
G|--0--0--0--0--0--0--0--0--2--2--2--2--0--0--0--0--
D|--2--2--2--2--0--0--0--0--0--0--0--0--2--2--2--2--
A|--2--2--2--2--2--2--2--2--------------3--3--3--3--
E|--0--0--0--0--3--3--3--3--------------------------

Solo

E|---------------------------------------------------------------------------------------------------------------------
B|--------------------------------------------------------------------------------------------------------------------
G|--------------------------------7--5---------7p5-----------------7---------------5h-9p5------5h-9p5------9b11-11r9--
D|--------5--7--5-----7-----7--5--------7--7---------5h7------7b9------7b9---9r7-----------7-----------7--------------
A|--5--7-----------7-----5--------------------------------7-----------------------------------------------------------
E|--------------------------------------------------------------------------------------------------------------------
tabs and chords, guitar tabs, music transcription, music technology, deep learning, music information retrieval, transcribe into tabs & chords, chordify, music renditions, songsterr, reverbnation, tabulature, bollywood chords, ultimate guitar, yousician, guitar lessons, acoustic guitar, electric guitar, guitar tuner, 911 tabs