Guitar Tabs for History

(/) Slide Up  (\) Slide Down  (h) Hammer On  (p) Pull Off  (b) Bend (r) Release (v) Vibrato (x) Muted

Tabs for Song : 
BPM : 270

History - One Direction  
             You've gotta help me...
E|-----------x-----------------x-----------------x-----------------x--
B|-----------0--0--0--0-----0--x-----------------0--0--0--0--------x--
G|-----------0--0--0--0-----0--x-----------------0--0--0--0-----2--x--
D|--------0--x-----------------x--------------0--x--------------0--x--
A|-----------x-----------------x--0--1--2--------x--------2--------x--
E|--3--------x--------3--------x-----------------x-----------------x--

E|-----------------x-----------------x--------------------------------
B|-----------------0--0--0--0--------x---------3/5--3--0--------------
G|--------------0--0--0--0--0-----2--2-----0---0----0--0-----2--2-----
D|-----------------x--------------0--0-----0---0----------------0-----
A|--5--6--7--------x--------7--------x--------------------------0-----
E|-----------------x-----------------x--------------------------------

E|-----------------------x-----------------------------------x-----------------x--------
B|-----------------------x-----------------------------------x-----------------x--------
G|---2/-3\2--0--2-----0--x---------------2/-3\2--0--2-----0--x-----------------2-----0--
D|-----------------2-----x-----------------------------2-----x-----------------x--------
A|--------------3--------x-----3--3-----------------0--------x-----3--5--------5--------
E|-----------------------x-----------------------------------x-----------------x--------
  
             No they don't teach you...
E|-----------x-----------------x-----------------x-----------------x--
B|-----------0--0--0--0-----0--x-----------------0--0--0--0--------x--
G|-----------0--0--0--0-----0--x-----------------0--0--0--0-----2--x--
D|--------0--x-----------------x--------------0--x--------------0--x--
A|-----------x-----------------x--0--1--2--------x--------2--------x--
E|--3--------x--------3--------x-----------------x-----------------x--

E|-----------------x-----------------x--------------------------------
B|-----------------0--0--0--0--------x---------3/5--3--0--------------
G|--------------0--0--0--0--0-----2--2-----0---0----0--0-----2--2-----
D|-----------------x--------------0--0-----0---0----------------0-----
A|--5--6--7--------x-----------------x--------------------------0-----
E|-----------------x-----------------x--------------------------------

E|-----------------------x-----------------------------------x-----------------x-----------------
B|-----------------------x-----------------------------------x-----------------x-----------------
G|---2/-3\2--0--2-----0--x---------------2/-3\2--0--2-----0--x-----------------2-----0-----------
D|-----------------2-----x-----------------------------2-----x-----------------x--------0--------
A|--------------3--------x-----3--3-----------------0--------x-----3--5--------5-----------------
E|-----------------------x-----------------------------------x-----------------x--------3--------

                      You and me...
E|--------------------0--------3--------------------------0--------3--0--0-----------0--------------0--3-----
B|--1-----------------------3--3-----------------0-----3--------3--0-----------------0-----------3-----------
G|-----------------------------0--------0-----0--------------------0-----------------0-----------------------
D|--0--------------------------0-----------------------------------------------------2-----------------------
A|-----------------------------2-----------------2-----------------------------------2-----------------0-----
E|-----------------------------3-----------------------------------0-----------------0-----------------------

E|--0--3--0--0--0--------------0--3-----0--3--0--3--2--------
B|--------------1-----------3-----------------------3--------
G|--------------2-----------------------------------2--------
D|--------------2-----------------0-----------------0--------
A|--------------0--------------------------------------------
E|-----------------------------------------------------------
    You and me...
E|--3-----0--5--------3-----------------0--------3--0--0-----------0--------------0--3--0--0-----
B|-----------3--------------0--0-----3--------3--0-----------------0-----------3-----1--------1--
G|-----------0-----------------------------------0-----------------0-----------------2--------2--
D|-----------0-----------------------------------2-----------------2-----------------2--------2--
A|-----------2-----------------2-----------------2-----------------2-----------------0--------0--
E|-----------3-----------------------------------0-----------------0-----------------------------

E|-----0--3--0--0------------5/7-----7--------7--------5-----3-----
B|--3-----1--------1--3--3-----------------------------------------
G|--------2--------2-----------------------------------------------
D|--------2--------2---------0/------0--------0--------------------
A|--------0--------0-----------------------------------------------
E|--------------------------------------------------------------3--



Song lyrics here 
E|--
B|--
G|--
D|--
A|--
E|--

Use manual mode to free up cursor. Paste any tab in acousterr tab maker and we'll play it !!!
tabs and chords, guitar tabs, music transcription, music technology, deep learning, music information retrieval, transcribe into tabs & chords, chordify, music renditions, songsterr, reverbnation, tabulature, bollywood chords, ultimate guitar, yousician, guitar lessons, acoustic guitar, electric guitar, guitar tuner, 911 tabs