Guitar Tabs for Hillsong - We The Redeemed

(/) Slide Up  (\) Slide Down  (h) Hammer On  (p) Pull Off  (b) Bend (r) Release (v) Vibrato (x) Muted

Tabs for Song : Intro - Finger
E|-----------2--------------0-----------------0----------------------3---2--------
B|--------3--------------3-----v2----------3-----------------3-------3------3-----
G|-----0--------------2-----------------2-----------------4----------0---------2--
D|-----------------------------------------------------4-------------0------------
A|-----------------0--------------------------------2----------------2------------
E|--3--------------------------------2-------------------------------3------------


Verse1
E|--------5-----------5--------------5-----------5--------------5-----
B|-----5-----7-----------5--------5-----7--8--------8--------5-----7--
G|--7--------------7-----------6--------------7-----------7-----------
D|--------------------------------------------------------------------
A|--------------------------------------------------------------------
E|--------------------------------------------------------------------

Verse2
E|-----5-----------------------5--------------------
B|--------8--7--------5-----7-----8--7--------5-----
G|--7-----------6--7--------------------6--7-----6--
D|--------------------------------------------------
A|--------------------------------------------------
E|--------------------------------------------------

solo
E|--------------------------------------------------------------15-15-14-14----------------17----17----
B|--/1010-7--10-------------------------------------------------------------14-14-15-15-------15----15-
G|--------------v9-v7-----9b11--9b11b9--7---7h-9p7--6---6h7--------------------------------------------
D|-----------------------------------------------------------------------------------------------------
A|-----------------------------------------------------------------------------------------------------
E|-----------------------------------------------------------------------------------------------------

Paste any tab in acousterr's tab maker and we'll play it !!!
Now supports capo and sound effects for vibrato/pull-off/hammer/bends/mutes etc !!! Checkout help section
tabs and chords, guitar tabs, music transcription, music technology, deep learning, music information retrieval, transcribe into tabs & chords, chordify, music renditions, songsterr, reverbnation, tabulature, bollywood chords, ultimate guitar, yousician, guitar lessons, acoustic guitar, electric guitar, guitar tuner, 911 tabs