Guitar Tabs for Wake- Hillsong

(/) Slide Up  (\) Slide Down  (h) Hammer On  (p) Pull Off  (b) Bend (r) Release (v) Vibrato (x) Muted

Tabs for Song : 
BPM : 200

Intro/Verse 2/Ending
E|--------------------------------------------------
B|--------------------------------------------------
G|--2--4--4--2--4--4--7--7--7--0--0--0--0--0--0--0--
D|--0--0--0--0--0--0--0--0--0--0--0--4--4--2--2--0--     3x
A|--------------------------------------------------
E|--------------------------------------------------

E|--------------------------------------------------
B|--------------------------------------------------
G|--2--4--4--2--4--4--7--7--7--9--9--11-11-12-12----
D|--0--0--0--0--0--0--0--0--0--0--0--0--0--0--0-----
A|--------------------------------------------------
E|--------------------------------------------------
Verse 1
Chord: C D Bm Em

Pre- Chorus
E|-----------------------------------------------------------
B|-----------15----15----15----15----15----15----13----12-13-
G|---4/---12----12----12----12----12----12----12----12-------
D|-----------------------------------------------------------
A|-----------------------------------------------------------
E|-----------------------------------------------------------

E|--------------------------------------------------
B|--15----15----15----15----15----15----13----12-13-
G|-----12----12----12----12----12----12----12-------   2x
D|--------------------------------------------------
A|--------------------------------------------------
E|--------------------------------------------------

E|-----------------------------------------------------
B|--15----15----15----15----15----15----15----15-----
G|-----12----12----12----12----12----12----12----12----
D|-----------------------------------------------------
A|-----------------------------------------------------
E|-----------------------------------------------------

Interlude-Chorus
E|--------------------------------------------------8--8--8--8--8--8--8--8--------------------------
B|--5--5--5--5--5--5--5--5--7--7--7--7--7--7--7--7--8--8--8--8--8--8--8--8--12-12-12-12-12-12-12-12-
G|--5--5--5--5--5--5--5--5--7--7--7--7--7--7--7--7--7--7--7--7--7--7--7--7--12-12-12-12-12-12-12-12-   
D|--5--5--5--5--5--5--5--5--7--7--7--7--7--7--7--7--5--5--5--5--5--5--5--5--12-12-12-12-12-12-12-12-
A|--------------------------------------------------------------------------------------------------
E|--------------------------------------------------------------------------------------------------

E|--------------------------------------------------------------------------------------------------
B|--5--5--5--5--5--5--5--5--7--7--7--7--7--7--7--7--10-10-10-10-10-10-10-10-8--8--8--8--8--8--8--8--
G|--5--5--5--5--5--5--5--5--7--7--7--7--7--7--7--7--7--7--7--7--7--7--7--7--7--7--7--7--7--7--7--7--   
D|--5--5--5--5--5--5--5--5--7--7--7--7--7--7--7--7--7--7--7--7--7--7--7--7--5--5--5--5--5--5--5--5--
A|--------------------------------------------------------------------------------------------------
E|--------------------------------------------------------------------------------------------------


tabs and chords, guitar tabs, music transcription, music technology, deep learning, music information retrieval, transcribe into tabs & chords, chordify, music renditions, songsterr, reverbnation, tabulature, bollywood chords, ultimate guitar, yousician, guitar lessons, acoustic guitar, electric guitar, guitar tuner, 911 tabs