Guitar Tabs for High Places

Tabs for Song : HIGH PLACES

COUPLET :

E|------------------------------------------------------------
B|--------------------------------------------------
G|--------------------------------------------------
D|--------------------------------------------------
A|--------------------------------------------------
D|--3--2-----2--2--2-----0--7--5-----0--8--7-----0--

E|-----------------------------------------------------
B|-----------------------------------------------------
G|--------------------------------------------------
D|--------------------------------------------------
A|--------------------------------------------------
D|--8--7-----7--7--7-----0--12-10----0--12-13----0--


REFRAIN :

E|--------------------------------------------------------------------------------------------
B|--------------------------------------------------------------------------------------------
G|--------------------------------------------------------------------------------------------
D|--------------------------------------------------------------------------------------------
A|--------------------------------------------------------------------------------------------
D|--8--8-----8--8--8-----5--5--5-----8--7-----0--0--0--0--0--0--0--0--0--0--0--0--0--0--0--0--

E|--------------------------------------------------------------------------------------------
B|--------------------------------------------------------------------------------------------
G|--------------------------------------------------------------------------------------------
D|--------------------------------------------------------------------------------------------
A|--------------------------------------------------------------------------------------------
D|--8--8-----8--8--8-----5--5--5-----7--3-----0--0--0--0--0--0--0--0--0--0--0--0--0--0--0--0--







BREAK :

E|-----------------------------------------------------------------------------
B|-----------------------------------------------------------------------------
G|-----------------------------------------------------------------------------
D|-----------------------------------------------------------------------------
A|-----------------------------------------------------------------------------
D|--2--2-----0--5--3--0-----6-----0--5--6-----2--2-----0-----5--5--3-----3--6--
 
E|---------------------------------------------------------------------------------
B|--------------------------------------------------------------------------------
G|--------------------------------------------------------------------------------
D|--------------------------------------------------------------------------------
A|--------------------------------------------------------------------------------
D|--2--2-----0--5--3--0-----6-----0--5--6-----2--2-----0--0--2-----2--2-----0--3--

tabs and chords, guitar tabs, music transcription, music technology, deep learning, music information retrieval, transcribe into tabs & chords, chordify, music renditions, songsterr, reverbnation, tabulature, bollywood chords, ultimate guitar, yousician, guitar lessons, acoustic guitar, electric guitar, guitar tuner, 911 tabs