Guitar Tabs for High Places

(/) Slide Up  (\) Slide Down  (h) Hammer On  (p) Pull Off  (b) Bend (r) Release (v) Vibrato (x) Muted

Tabs for Song : HIGH PLACES

COUPLET
E|--------------------------------------------------------------
B|--------------------------------------------------------------
G|--------------------------------------------------------------
D|--------------------------------------------------------------
A|-------------------------------------------------------------
D|----3--2-----2--2--2-----0--7--5-----0--8--7-----0--------X3


E|-----------------------------------------------
B|-----------------------------------------------
G|-----------------------------------------------
D|-----------------------------------------------
A|-----------------------------------------------
D|--3--2-----2--2--2-----2--0-----5--8--7-----0--

E|-----------------------------------------------------------
B|-----------------------------------------------------------
G|-----------------------------------------------------------
D|-----------------------------------------------------------
A|-----------------------------------------------------------
D|--8--7-----7--7--7-----0--12-10----0--13-12----0-----------3X

E|-----------------------------------------------
B|-----------------------------------------------
G|-----------------------------------------------
D|-----------------------------------------------
A|-----------------------------------------------
D|--8--7-----7--7--7-----7--0-----10-12-13----0--
REFRAIN
E|-----------------------------------------------------------------------------------------------------------
B|-----------------------------------------------------------------------------------------------------------
G|-----------------------------------------------------------------------------------------------------------
D|-----------------------------------------------------------------------------------------------------------
A|-----------------------------------------------------------------------------------------------------------
D|--8--8-----8--8--8-----5--5--5-----8--7-----0--0--0--0-----0--0--0--0-----0--0--0--0--0-----0--0--0--0-----

E|--------------------------------------------------------------------------------------------------------
B|--------------------------------------------------------------------------------------------------------
G|--------------------------------------------------------------------------------------------------------
D|--------------------------------------------------------------------------------------------------------
A|--------------------------------------------------------------------------------------------------------
d|--8--8-----8--8--8-----5--5--5-----7-----3-----0--0--0--0-----0--0--0--0-----0--0--0--0-----0--0--0--0--
BREAK
E|--------------------------------------------------------
B|--------------------------------------------------------
G|--------------------------------------------------------
D|--------------------------------------------------------
A|--------------------------------------------------------
D|--3--2-----2--2--2-----5--5-----5--7-----7--7----7--8--

E|--------------------------------------------`
B|--------------------------------------------
G|--------------------------------------------
D|--------------------------------------------
A|--------------------------------------------
D|--3--2-----2--2--2-----5--5-----5-----8--7--

Paste any tab in acousterr's tab maker and we'll play it !!!
Now supports capo and sound effects for vibrato/pull-off/hammer/bends/mutes etc !!! Checkout help section
tabs and chords, guitar tabs, music contests, music covers, songsterr, reverbnation, renditions, tabulature, bollywood chords, ultimate guitar, yousician, guitar lessons, torrins, fender, gibson, acoustic guitar, electric guitar, youtube covers, gootar, guitar tuner, A-Z tabs, 911 tabs