Guitar Tabs for Hey Mama By Jonas Blue

(/) Slide Up  (\) Slide Down  (h) Hammer On  (p) Pull Off  (b) Bend (r) Release (v) Vibrato (x) Muted

Tabs for Song : 
BPM : 200

Song lyrics here 
E|--2--3--2-----------------------------0--2--3--2--------------5--3--2-----------------------5--------
B|-----------0-----0--2--3--2--------3--------------0--------0-----------3-----------7--7--7-----7-----
G|--------------------------------------------------------------------------------7--------------------
D|-----------------------------------------------------------------------------------------------------
A|-----------------------------------------------------------------------------------------------------
E|-----------------------------------------------------------------------------------------------------

E|--------------5-----------------------0-----------------------5--------------------5-----------------------0--
B|-----7--7--7-----7--7--7--0--0-----------------7-----7--7--7-----7--------7--7--7-----7--7--7--0--0-----------
G|--------------------------------7--7-----------------------------------------------------------------7--7-----
D|--------------------------------------------------------------------------------------------------------------
A|--------------------------------------------------------------------------------------------------------------
E|--------------------------------------------------------------------------------------------------------------

E|-----------------0--0-----0--0-----0--2--0--------2--------------2---------------0--0-----0--0--------
B|--7--7-----0--------------------------------3--3-----3--------3-----0--------3-----------------3-----
G|-----------------------------------------------------------------------------------------------------
D|-----------------------------------------------------------------------------------------------------
A|-----------------------------------------------------------------------------------------------------
E|-----------------------------------------------------------------------------------------------------

E|--------------------------------------------------------------------------------------------------0-----0--
B|--3--3--3-----3-----3--3-----------0-----0--------------------------------------------------0--------7-----
G|-----------------2--------2--2--2-----------2--2--0--------7--7--7-----7-----7--7--------------7-----------
D|-----------------------------------------------------4--------------------7--------7--7--7-----------------
A|-----------------------------------------------------------------------------------------------------------
E|-----------------------------------------------------------------------------------------------------------

E|-----------------0--------0-----0--------------0--2--2-----------3--3--2--0--------0--0-----0-----------0--2-----------
B|--3--3--3-----3-----3--3-----------3--------3-----------------3--------------3--3-----------------0--3--------0--3--3--
G|-----------------------------------------------------------------------------------------------------------------------
D|-----------------------------------------------------------------------------------------------------------------------
A|-----------------------------------------------------------------------------------------------------------------------
E|-----------------------------------------------------------------------------------------------------------------------

E|--2--------------0--0--------0--0--0--2--0--------------2--------------------0--0-----0--0-----------2--5--7--
B|-----0--0--0--3-----------------------------3--0-----------0-----0--0--0--3-----------------3--0--------------
G|--------------------------------------------------------------------------------------------------------------
D|--------------------------------------------------------------------------------------------------------------
A|--------------------------------------------------------------------------------------------------------------
E|--------------------------------------------------------------------------------------------------------------

E|--7-----2--5--3--------2--0-----0--0-----2--------------0--2--0-----------------0--2--0-----0--
B|-----------------------------3--------3-----------0--3-----------3--0-----0--3-----------3-----
G|-----------------------------------------------------------------------------------------------
D|-----------------------------------------------------------------------------------------------
A|-----------------------------------------------------------------------------------------------
E|-----------------------------------------------------------------------------------------------

E|-----0--2--3--2-----------------------------0--2--3--2-----------5--3--2-----------0--2--3--2--0-----------------
B|--3--------------0--------0--2--2--3-----3--------------0-----0-----------3-----3--------------------0--2--2--3--
G|-----------------------------------------------------------------------------------------------------------------
D|-----------------------------------------------------------------------------------------------------------------
A|-----------------------------------------------------------------------------------------------------------------
E|-----------------------------------------------------------------------------------------------------------------

E|-----0--2--3--2--------------5--3--2--------------------5-----------------------5--------------------5-----
B|--3--------------0--------0-----------3--------7--7--7-----7--7--7--0--0--------------7-----7--7--7-----7--
G|--------------------------------------------------------------------------7--7-----------------------------
D|-----------------------------------------------------------------------------------------------------------
A|-----------------------------------------------------------------------------------------------------------
E|-----------------------------------------------------------------------------------------------------------

E|-----------5-----------------------5--------------------0--0-----0--0-----0--2--0--------2-----------2-----
B|--7--7--7-----7--7--7--0--0--------------7-----7--0--------------------------------3--3-----3-----3-----0--
G|-----------------------------7--7--------------------------------------------------------------------------
D|-----------------------------------------------------------------------------------------------------------
A|-----------------------------------------------------------------------------------------------------------
E|-----------------------------------------------------------------------------------------------------------

E|--------0--0-----0--0-----------------------------------------------------------------------
B|--3-----------------------3--------3--3--3-----3-----3--3-----------0-----0-----------------
G|-----------------------------------------------------------2--2--2-----------2--2--0--------
D|--------------------------------------------------------------------------------------4-----
A|--------------------------------------------------------------------------------------------
E|--------------------------------------------------------------------------------------------

E|--------------------------------------------0--2--0--------------0-----------0--0-----------0--2--2-----
B|--3--3--3-----3-----3--3-----------0-----3--------------3--3--3-----3--3--3--------3-----3--------------
G|-----------------2--------2--2--2-----------------------------------------------------------------------
D|--------------------------------------------------------------------------------------------------------
A|--------------------------------------------------------------------------------------------------------
E|--------------------------------------------------------------------------------------------------------

E|-----3--3--2--0--------0--0--0--------------0--2-----------------2-----------------0--0-----0--0--0--2--0--------
B|--3--------------3--3-----------------0--3--------0--3--3-----------0-----0--0--3--------------------------3--0--
G|-----------------------------------------------------------------------------------------------------------------
D|-----------------------------------------------------------------------------------------------------------------
A|-----------------------------------------------------------------------------------------------------------------
E|-----------------------------------------------------------------------------------------------------------------

E|--2-----------------0--0-----0--0-----------2--5--7-----7--2--5--3-----2--0--------0--0-----2--
B|-----0-----0--0--3-----------------3--0--------------------------------------3-----------3-----
G|-----------------------------------------------------------------------------------------------
D|-----------------------------------------------------------------------------------------------
A|-----------------------------------------------------------------------------------------------
E|-----------------------------------------------------------------------------------------------

E|--------0--2-----0-----------2-----------------0--0-----0--0--0--2--0-----------
B|--0--3--------------3--0--------0-----0--0--3--------------------------3--0--0--
G|--------------------------------------------------------------------------------
D|--------------------------------------------------------------------------------
A|--------------------------------------------------------------------------------
E|--------------------------------------------------------------------------------

E|--2--------------------0--0-----0--0-----------2--5--7-----7--2--5--3-----2--0--------0--0-----2-----------0--2-----0--------
B|-----0-----0--0--0--3-----------------3--0--------------------------------------3-----------3--------0--3--------------2--0--
G|-----------------------------------------------------------------------------------------------------------------------------
D|-----------------------------------------------------------------------------------------------------------------------------
A|-----------------------------------------------------------------------------------------------------------------------------
E|-----------------------------------------------------------------------------------------------------------------------------

E|--------0--2-----0--------------0--2--3--2--------------------------0--2--3--2-----------5--3--2-----
B|--0--3--------------2--0-----3--------------0-----0--2--2--3-----3--------------0-----0-----------3--
G|-----------------------------------------------------------------------------------------------------
D|-----------------------------------------------------------------------------------------------------
A|-----------------------------------------------------------------------------------------------------
E|-----------------------------------------------------------------------------------------------------

E|-----0--2--3--2--------------------------0--2--3--2-----------5--3--2-----
B|--3--------------0-----0--2--2--3-----3--------------0-----0-----------3--
G|--------------------------------------------------------------------------
D|--------------------------------------------------------------------------
A|--------------------------------------------------------------------------
E|--------------------------------------------------------------------------





Song lyrics here 


Use manual mode to free up cursor. Paste any tab in acousterr tab maker and we'll play it !!!
tabs and chords, guitar tabs, music transcription, music technology, deep learning, music information retrieval, transcribe into tabs & chords, chordify, music renditions, songsterr, reverbnation, tabulature, bollywood chords, ultimate guitar, yousician, guitar lessons, acoustic guitar, electric guitar, guitar tuner, 911 tabs