Guitar Tabs for Dancing In The Moonlight - Alt J Cover By Jonas Berry

(/) Slide Up  (\) Slide Down  (h) Hammer On  (p) Pull Off  (b) Bend (r) Release (v) Vibrato (x) Muted

Tabs for Song : 

Song lyrics here


E|-----------------------------------------------------------------------------------------------------------------------------------------------------------------------------------------------------\\
B|-----------11----------11----------10----------10-8--------8-----------8--6--------6-----------6-----------------------------------------------------------------------------------------------------
G|-----------------------------------------------------------------------------------------------------------7-----------7-----------7------------7h8---------8p7-----------7-----------7-----------7--
D|-----8-----------8-----------7-----------7-----------8-----------8-----------8-----------8-----------8-----------8-----------8-----------8-----------8--------------8-----------8-----------8--------
A|--10----10----10----10----8-----8-----8-----8-----6-----6-----6-----6-----5-----5-----5-----5-----5-----5-----5-----5-----6-----6-----6-----6-----6-----6--------6-----6-----5-----5-----5-----5-----
E|-----------------------------------------------------------------------------------------------------------------------------------------------------------------------------------------------------



Song lyrics here

Paste any tab in acousterr's tab maker and we'll play it !!!
Now supports capo and sound effects for vibrato/pull-off/hammer/bends/mutes etc !!! Checkout help section

E|-----------------------------------------------------------------------
B|-----------------------------------------------------------------------
G|-----------7-----------7-----------7-----------7-----------7-----------
D|-----8-----------8-----------8-----------8-----------8-----------8-----
A|--5-----5-----5-----5-----5-----5-----5-----5-----5-----5-----5-----5--
E|-----------------------------------------------------------------------
tabs and chords, guitar tabs, music transcription, music technology, deep learning, music information retrieval, transcribe into tabs & chords, chordify, music renditions, songsterr, reverbnation, tabulature, bollywood chords, ultimate guitar, yousician, guitar lessons, acoustic guitar, electric guitar, guitar tuner, 911 tabs