Guitar Tabs for He's A Pirate

(/) Slide Up  (\) Slide Down  (h) Hammer On  (p) Pull Off  (b) Bend (r) Release (v) Vibrato (x) Muted

600 bpm for this song

Tabs for Song : 
BPM : 400

Song lyrics here 
E|-----------------------0--1-----1-----1--3--0-----0-----------------------------------------------0--1-----1-----1--3--
B|-----1--3-----3-----3-----------------------------------3--1--1--3--------------1--3-----3-----3-----------------------
G|--2--------------------------------------------------------------------------2-----------------------------------------
D|-----------------------------------------------------------------------------------------------------------------------
A|-----------------------------------------------------------------------------------------------------------------------
E|-----------------------------------------------------------------------------------------------------------------------

E|--0-----0--------------------------------------------1--3-----3-----3--5--6-----6-----5--3--5--------------0--1-----
B|--------------3--1--3--------------1--3-----3-----3--------------------------------------------3--------3-----------
G|--------------------------------2-----------------------------------------------------------------------------------
D|--------------------------------------------------------------------------------------------------------------------
A|--------------------------------------------------------------------------------------------------------------------
E|--------------------------------------------------------------------------------------------------------------------

E|--1-----3-----5--------------1--0-----0-----1-----0--------------------------------0--1-----1-----1--3--0-----0-----
B|-----------------3--------3--------------------3-----------------1--3-----3-----3-----------------------------------
G|--------------------------------------------------------------2-----------------------------------------------------
D|--------------------------------------------------------------------------------------------------------------------
A|--------------------------------------------------------------------------------------------------------------------
E|--------------------------------------------------------------------------------------------------------------------

E|--------------------------------------------0--1-----1-----1--3--0-----0--------------------------------------------
B|--3--1--1--3--------------1--3-----3-----3-----------------------------------3--1--3--------------1--3-----3-----3--
G|-----------------------2-----------------------------------------------------------------------2--------------------
D|--------------------------------------------------------------------------------------------------------------------
A|--------------------------------------------------------------------------------------------------------------------
E|--------------------------------------------------------------------------------------------------------------------

E|--1--3-----3-----3--5--6-----6-----5--3--5--------------0--1-----1-----3-----5--------------1--0-----0--------------
B|--------------------------------------------3--------3--------------------------3--------3-----------------3--2--3--
G|--------------------------------------------------------------------------------------------------------------------
D|--------------------------------------------------------------------------------------------------------------------
A|--------------------------------------------------------------------------------------------------------------------
E|--------------------------------------------------------------------------------------------------------------------

E|--------------0--1-----1-----3-----5--1-----1-----------------6-----------3-----------------0-----0-----------1--------1--
B|-----------3-----------------------------------3-----------------------------3--------------------------3-----------------
G|--------------------------------------------------2-----------------------------3-----------------------------------------
D|--------------------------------------------------------------------------------------------------------------------------
A|--------------------------------------------------------------------------------------------------------------------------
E|--------------------------------------------------------------------------------------------------------------------------

E|--3--5-----5-----5-----6--5--------3-----3-----3-----3--5--------5-----5-----5-----6--5--------3-----1-----0--------
B|-----------------------------------------------------------------------------------------------------------------3--
G|--------------------------------------------------------------------------------------------------------------------
D|--------------------------------------------------------------------------------------------------------------------
A|--------------------------------------------------------------------------------------------------------------------
E|--------------------------------------------------------------------------------------------------------------------

E|-----------0-----1--------3--5-----3-----1-----0-----1-----3-----5-----3--------1--3-----5--------3--1-----0-----1-----0--------
B|--------3--------------------------------------------------------------------------------------------------------------------3--
G|--------------------------------------------------------------------------------------------------------------------------------
D|--------------------------------------------------------------------------------------------------------------------------------
A|--------------------------------------------------------------------------------------------------------------------------------
E|--------------------------------------------------------------------------------------------------------------------------------

E|--------0--------------------0--1-----0-----1-----3-----1-----3-----5-----3-----1--------------------0-----1-----3-----
B|-----------1-----3--------3-----------------------------------------------------------3--------3-----------------------
G|-----------------------------------------------------------------------------------------------------------------------
D|-----------------------------------------------------------------------------------------------------------------------
A|-----------------------------------------------------------------------------------------------------------------------
E|-----------------------------------------------------------------------------------------------------------------------

E|--5-----6-----------3-----1-----3--0--------0--------5--------------6--------------5-----5-----5-----5--3--------------3-----
B|--------------3-----------------------3--------2-----------------------------------------------------------------------------
G|-----------------------------------------------------------------------------------------------------------------------------
D|-----------------------------------------------------------------------------------------------------------------------------
A|-----------------------------------------------------------------------------------------------------------------------------
E|-----------------------------------------------------------------------------------------------------------------------------

E|--------------1--------------1-----3-----0-----------------0--1--5-----------0--1--6-----------0--1--5-----5--
B|-----------------------------------------------3--------3-----------------3-----------------3-----------------
G|--------------------------------------------------------------------------------------------------------------
D|--------------------------------------------------------------------------------------------------------------
A|--------------------------------------------------------------------------------------------------------------
E|--------------------------------------------------------------------------------------------------------------

E|-----8-----5--3--------------3-----------------1--------------1-----3-----0-----------------------
B|--------------------------------------------------------------------------------3--------------3--
G|--------------------------------------------------------------------------------------------------
D|--------------------------------------------------------------------------------------------------
A|--------------------------------------------------------------------------------------------------
E|--------------------------------------------------------------------------------------------------





 


Use manual mode to free up cursor. Paste any tab in acousterr tab maker and we'll play it !!!
tabs and chords, guitar tabs, music transcription, music technology, deep learning, music information retrieval, transcribe into tabs & chords, chordify, music renditions, songsterr, reverbnation, tabulature, bollywood chords, ultimate guitar, yousician, guitar lessons, acoustic guitar, electric guitar, guitar tuner, 911 tabs