Guitar Tabs for He's A Pirate - Pirates Of The Caribbean Soundtrack

(/) Slide Up  (\) Slide Down  (h) Hammer On  (p) Pull Off  (b) Bend (r) Release (v) Vibrato (x) Muted

Tabs for Song : 

Song lyrics here
E|--------------------------0--1--1---1h3--0--0--------------------------
B|--3--3--3-----1--3--3--3-----------------------3--1---1h3-----------1--
G|-----------2-----------------------------------------------------2-----
D|-----------------------------------------------------------------------
A|-----------------------------------------------------------------------
E|-----------------------------------------------------------------------

Song lyrics here
E|-----------0--1--1---1h3--0--0--------------------------------1--3--3--3--5--
B|--3--3--3-----------------------3---1h3-----------1--3--3--3-----------------
G|-----------------------------------------------2-----------------------------
D|-----------------------------------------------------------------------------
A|-----------------------------------------------------------------------------
E|-----------------------------------------------------------------------------

E|--6--6--5--3--5-----------0--1--1--3--5-----------1--0--0--1-----0--------------
B|-----------------3-----3-----------------3-----3--------------3--------------1--
G|--------------------------------------------------------------------------2-----
D|--------------------------------------------------------------------------------
A|--------------------------------------------------------------------------------
E|--------------------------------------------------------------------------------

E|-----------0--1--1--1--3--0--0-----------------------------0--1--1--1--3--
B|--3--3--3-----------------------3---1h3--------1--3--3--3-----------------
G|--------------------------------------------2-----------------------------
D|--------------------------------------------------------------------------
A|--------------------------------------------------------------------------
E|--------------------------------------------------------------------------

E|--0--0--------------------------1--3--3--3--5--6--6--5--3--5--------0--
B|--------3--1--3-----1--3--3--3--------------------------------3--3-----
G|-----------------2-----------------------------------------------------
D|-----------------------------------------------------------------------
A|-----------------------------------------------------------------------
E|-----------------------------------------------------------------------

E|--1--1--3--5--------1--0--0--------------0--1--1--3--5--1--1-----
B|--------------3--3-----------3--2--3--3-----------------------3--
G|-----------------------------------------------------------------
D|-----------------------------------------------------------------
A|-----------------------------------------------------------------
E|-----------------------------------------------------------------

E|-----6--3--------0--0-----0--0--3--5--5--5--6--5--
B|-----------3-----------3--------------------------
G|--2-----------3-----------------------------------
D|--------------------------------------------------
A|--------------------------------------------------
E|--------------------------------------------------

Paste any tab in acousterr's tab maker and we'll play it !!!
Now supports capo and sound effects for vibrato/pull-off/hammer/bends/mutes etc !!! Checkout help section
tabs and chords, guitar tabs, music transcription, music technology, deep learning, music information retrieval, transcribe into tabs & chords, chordify, music renditions, songsterr, reverbnation, tabulature, bollywood chords, ultimate guitar, yousician, guitar lessons, acoustic guitar, electric guitar, guitar tuner, 911 tabs