Heroic Desire - Guitar Tabs

E|-----3--2-----------------3--2-----2--2--3--------7--5--7--10-7--3--5-----2--3--2-----2--3-----10-5--7--3--2--3--5--7-----7--5--7--10-7--3--5-----2--3--2-----2--3--------10-5--7--3--2--3--5--5--10----
B|-----------3-----3--5--------------------------------------------------3-----------5--------3--------------------------------------------------3-----------5-----------3--------------------------------
G|--4-----------4--------4--------2--------------4-----------------------------------------------------------------------4--------------------------------------------------------------------------------
D|--------------------------------------------------------------------------------------------------------------------------------------------------------------------------------------------------------
A|--------------------------------------------------------------------------------------------------------------------------------------------------------------------------------------------------------
E|--------------------------------------------------------------------------------------------------------------------------------------------------------------------------------------------------------

E|-----3--2--------7--5--3--2--3--2--5--10-10-8--7--5-----8--7--5--------8--7--5--3--10-10-5--14-15-17-19-------------3--2--------------7--5--3--3--5-----------5--10-8--7--5-----7--8--3--8-----8--10-12-7--15-15-17-14-19--
B|-----------3--------------------------------------------------------------------------------------------------------------3-----------------------------3-------------------------------------------------------------------------------------------
G|--4-----------4-----------------------------------------------------------------------------------------------4--------------4-----------------------------------------------------------------------------------------------------------------------
D|-----------------------------------------------------------------------------------------------------------------------------------------------------------------------------------------------------------------------------------------------------
A|-----------------------------------------------------------------------------------------------------------------------------------------------------------------------------------------------------------------------------------------------------
E|-----------------------------------------------------------------------------------------------------------------------------------------------------------------------------------------------------------------------------------------------------
tabs and chords, guitar tabs, music transcription, music technology, deep learning, music information retrieval, transcribe into tabs & chords, chordify, music renditions, songsterr, reverbnation, tabulature, bollywood chords, ultimate guitar, yousician, guitar lessons, acoustic guitar, electric guitar, guitar tuner, 911 tabs