Guitar Tabs for Here Without You - 3 Doors Down

(/) Slide Up  (\) Slide Down  (h) Hammer On  (p) Pull Off  (b) Bend (r) Release (v) Vibrato

Tabs for Song : Capo on 1st fret  Speed 2X 

                                                                                         A  HUNDRED
E|--------------------------------------------------------------------------------------------------
B|--------------1--------0--------0-----1-----------------------------------------------0-----------
G|-----------2-----2--------2--------------2-----------------0--------------------0-----------0-----
D|--------2-----------2--------2-----2--------2-----------0-----0--------------0-----0-----0-----0--
A|--0--------------------------------------------0-----3-----------3--------------------------------
E|--------------------------------------------------1-----------------3-----------------------------

    DAYS   HAVE   MADE   ME   OLDER    SINCE  THE   LAST   TIME   THAT   I   SAW   YOUR  PRETTY 
E|--------------------------------------------------------------------------------------------------
B|--------------1--------0--------0-----1-----------------------0--------1--------0------1/3--------
G|-----------2-----2--------2--------------2-----------------0-----0--------0-----------------------
D|--------2-----------2--------2-----2--------2-----------0-----------0--------0-----0--------------
A|--0--------------------------------------------0--------------------------------------------------
E|--------------------------------------------------3-----------------------------------------------
    FACE                                                                                A  THOUSAND
E|--------------------------------------------------------------------------------------------------
B|--------------1--------0--------0-----1--------------------0--------------------------0-----------
G|-----------2-----2--------2--------------2--------------0-----0-----------------0-----------0-----
D|--------2-----------2--------2-----2--------2--------0-----------0-----------0-----0-----0-----0--
A|--0--------------------------------------------0--------------------------------------------------
E|--------------------------------------------------1-----------------3-----------------------------
    LIES  HAVE  MADE  ME  COLDER         AND   I   DONT   THINK   I   CAN   LOOK   AT   THIS  THE                   
E|--------------------------------------------------------------------------------------------------
B|--------------1--------0--------0-----1-----------------------0--------1--------0------1/3--------
G|-----------2-----2--------2--------------2-----------------0-----0--------0-----------------------
D|--------2-----------2--------2-----2--------2-----------0-----------0--------0-----0--------------
A|--0--------------------------------------------0--------------------------------------------------
E|--------------------------------------------------3-----------------------------------------------
    SAME
E|--------------------------------------------------------------------------------------------------
B|--------------1--------0--------0-----1--------------------0--------------------------0-----------
G|-----------2-----2--------2--------------2--------------0-----0-----------------0-----------0-----
D|--------2-----------2--------2-----2--------2--------0-----------0-----------0-----0-----0-----0--
A|--0--------------------------------------------0--------------------------------------------------
E|--------------------------------------------------1-----------------3-----------------------------
         AND   ALL   THE   MILES   THAT   SEPERATE
E|--------------------------------------------------------------------------------------------------
B|--------------1--------0--------0-----1-----------------------0--------1--------0------1/3--------
G|-----------2-----2--------2--------------2-----------------0-----0--------0-----------------------
D|--------2-----------2--------2-----2--------2-----------0-----------0--------0-----0--------------
A|--0--------------------------------------------0--------------------------------------------------
E|--------------------------------------------------3-----------------------------------------------
          DISSAPEAR     NOW       WHEN        I'M     DREAMING     OF     YOUR     FACE
E|--------------------------------------------------------------------------------------------------
B|--------------1--------0--------0-----1--------------------0--------------------------0-----------
G|-----------2-----2--------2--------------2--------------0-----0-----------------0-----------0-----
D|--------2-----------2--------2-----2--------2--------0-----------0-----------0-----0-----0-----0--
A|--0--------------------------------------------0--------------------------------------------------
E|--------------------------------------------------1-----------------3-----------------------------


Now supports capo and sound effects for vibrato/pull-off/hammer/bends etc !!! Checkout help section
tabs and chords, guitar tabs, music contests, music covers, songsterr, reverbnation, renditions, tabulature, bollywood chords, ultimate guitar, yousician, guitar lessons, torrins, fender, gibson, acoustic guitar, electric guitar, youtube covers, gootar, guitar tuner, A-Z tabs, 911 tabs