Guitar Tabs for Kryptonite - 3 Doors Down

E|-----------------------
B|-----------3-----------
G|--------4-----4-----0--
D|-----4-----------4-----
A|--2--------------------
E|-----------------------

E|--------------------------
B|-----------------------0--
G|-----------0--------2-----
D|--------0--------2--------
A|-----2--------0-----------
E|--3-----------------------







E|-----------------------
B|-----------3-----------
G|--------4-----4-----0--
D|-----4-----------4-----
A|--2--------------------
E|-----------------------

E|--------------------------
B|-----------------------0--
G|-----------0--------2-----
D|--------0--------2--------
A|-----2--------0-----------
E|--3-----------------------







E|-----------------------
B|-----------3-----------
G|--------4-----4-----0--
D|-----4-----------4-----
A|--2--------------------
E|-----------------------

E|--------------------------
B|-----------------------0--
G|-----------0--------2-----
D|--------0--------2--------
A|-----2--------0-----------
E|--3-----------------------







E|-----------------------
B|-----------3-----------
G|--------4-----4-----0--
D|-----4-----------4-----
A|--2--------------------
E|-----------------------

E|-----------------0--------
B|--------------------0-----
G|-----------0-----------0--
D|--------0-----------------
A|-----2--------0-----------
E|--3-----------------------


E|-----------------------
B|-----------3-----------
G|--------4-----4-----0--
D|-----4-----------4-----
A|--2--------------------
E|-----------------------

E|--------------------------
B|-----------------------0--
G|-----------0--------2-----
D|--------0--------2--------
A|-----2--------0-----------
E|--3-----------------------







E|-----------------------
B|-----------3-----------
G|--------4-----4-----0--
D|-----4-----------4-----
A|--2--------------------
E|-----------------------

E|--------------------------
B|-----------------------0--
G|-----------0--------2-----
D|--------0--------2--------
A|-----2--------0-----------
E|--3-----------------------







E|-----------------------
B|-----------3-----------
G|--------4-----4-----0--
D|-----4-----------4-----
A|--2--------------------
E|-----------------------

E|--------------------------
B|-----------------------0--
G|-----------0--------2-----
D|--------0--------2--------
A|-----2--------0-----------
E|--3-----------------------







E|-----------------------
B|-----------3-----------
G|--------4-----4-----0--
D|-----4-----------4-----
A|--2--------------------
E|-----------------------

E|-----------------0--------
B|--------------------0-----
G|-----------0-----------0--
D|--------0-----------------
A|-----2--------0-----------
E|--3-----------------------














tabs and chords, guitar tabs, music contests, music covers, songsterr, reverbnation, renditions, tabulature, bollywood chords, ultimate guitar, yousician, guitar lessons, torrins, fender, gibson, acoustic guitar, electric guitar, youtube covers, gootar, guitar tuner, A-Z tabs, 911 tabs