Bass Tabs for Here As It Is In Heaven (church Cover -bass)

    Intro: Whole Notes                                                                   
G|--------------------------------------------------------------------------------------------------
D|--------------------------------------------------------------------------------------------------
A|--------------5-----------------------5-----------------------5-----------2-----------5-----------
E|--3-----------------------3-----------------------3-----------------------------------------5-----
B|--------------------------------------------------------------------------------------------------
    Verse1: x2 Whole Notes                                                               
G|--------------------------------------------------------------------------------------------------
D|--------------------------------------------------------------------------------------------------
A|--10----------5-----------10----------5-----------10----------5-----------2-----------5-----------
E|--------------------------------------------------------------------------------------------5-----
B|--------------------------------------------------------------------------------------------------
    Chorus1: x1 Whole Notes 
G|--------------------------------------------------------------------------------------------------
D|--------------------------------------------------------------------------------------------------
A|--------------------------------------------------------------------------------------------------
E|--3-----------3-----------7-----------5-----------3-----------3-----------7-----------5-----------
B|--------------------------------------------------------------------------------------------------
    Chorus1 (Continued): Whole Notes 
G|--------------------------------------------------------------------------------------------------
D|--------------------------------------------------------------------------------------------------
A|--------------5-----------------------------------------------------------------------------------
E|--3-----------------------------------------------------------------------------------------------
B|--------------------------------------------------------------------------------------------------
    Verse2: x2 Whole Notes                                                               
G|--------------------------------------------------------------------------------------------------
D|--------------------------------------------------------------------------------------------------
A|--10----------5-----------10----------5-----------10----------5-----------2-----------5-----------
E|--------------------------------------------------------------------------------------------5-----
B|--------------------------------------------------------------------------------------------------
    Chorus2: x2 Whole Notes                                                              
G|--------------------------------------------------------------------------------------------------
D|--------------------------------------------------------------------------------------------------
A|--------------------------------------------------------------------------------------------------
E|--3-----------3-----------7-----------5-----------3-----------3-----------7-----------5-----------
B|--------------------------------------------------------------------------------------------------
    Chorus2 (Continued): Whole Notes 
G|--------------------------------------------------------------------------------------------------
D|--------------------------------------------------------------------------------------------------
A|--------------5-----------------------------------------------------------------------------------
E|--3-----------------------------------------------------------------------------------------------
B|--------------------------------------------------------------------------------------------------
    Bridge: No Bass "Spirit of God fall fresh on us, We need Your presence"
G|--------------------------------------------------------------------------------------------------
D|--------------------------------------------------------------------------------------------------
A|--------------------------------------------------------------------------------------------------
E|--------------------------------------------------------------------------------------------------
B|--------------------------------------------------------------------------------------------------
    Bridge (continued): No Bass "Your kingdom come, Your will be done, Here as in heaven"
G|--------------------------------------------------------------------------------------------------
D|--------------------------------------------------------------------------------------------------
A|--------------------------------------------------------------------------------------------------
E|--------------------------------------------------------------------------------------------------
B|--------------------------------------------------------------------------------------------------
    Bridge (continued): Half Notes 
G|--------------------------------------------------------------------------------------------------
D|--------------------------------------------------------------------------------------------------
A|--------------------------------------------------------------------------------------------------
E|--3--3--3--3--3--3--3--5--7--7--7--7--5--5--5--5--3--3--3--3--3--3--3--5--7--7--7--7--5--5--5--5--
B|--------------------------------------------------------------------------------------------------
    Bridge (continued): Quarter Notes
G|--------------------------------------------------------------------------------------------------
D|--------------------------------------------------------------------------------------------------
A|--------------------------------------------------------------------------------------------------
E|--3--3--3--3--3--3--3--3--3--3--3--3--3--3--5--5--7--7--7--7--7--7--7--7--5--5--5--5--5--5--5--5--
B|--------------------------------------------------------------------------------------------------
    Bridge (continued): Quarter Notes
G|--------------------------------------------------------------------------
D|--------------------------------------------------------------------------
A|--------------------------------------------------------------------------
E|--3--3--3--3--3--3--3--3--3--3--3--3--3--3--5--5--7--7--7--7--7--7--7--7--
B|--------------------------------------------------------------------------
    Bridge (continued): Eighth Notes
G|-----------------------------------
D|-----------------------------------
A|-----------------------------------
E|--5--5--5--5--5--5--5--5--5--5--5--
B|-----------------------------------
    Solo: Eighth Notes
G|--------------------------------------------------------------------------------------------------
D|--------------------------------------------------------------------------------------------------
A|--------------------------------------------------------------------------------------------------
E|--3--3--3--3--3--3--3--3--3--3--3--3--3--3--3--3--0--0--0--0--0--0--0--0--0--0--0--0--5--5--5--5--
B|--------------------------------------------------------------------------------------------------

G|--------------------------------------------------------------------------------------------------
D|--------------------------------------------------------------------------------------------------
A|--------------------------------------------------------------------------------------------------
E|--7--7--7--7--7--7--7--7--7--7--7--7--7--7--7--7--5--5--5--5--5--5--5--5--5--5--5--5--5--5--5--5--
B|--------------------------------------------------------------------------------------------------

G|--------------------------------------------------------------------------------------------------
D|--------------------------------------------------------------------------------------------------
A|--------------------------------------------------------------------------------------------------
E|--3--3--3--3--3--3--3--3--3--3--3--3--3--3--3--3--0--0--0--0--0--0--0--0--0--0--0--0--5--5--5--5--
B|--------------------------------------------------------------------------------------------------

G|--------------------------------------------------------------------------------------------------
D|--------------------------------------------------------------------------------------------------
A|--------------------------------------------------------------------------------------------------
E|--7--7--7--7--7--7--7--7--7--7--7--7--7--7--7--7--5--5--5--5--5--5--5--5--5--5--5--5--5--5--5--5--
B|--------------------------------------------------------------------------------------------------

G|--------------------------------------------------------------------------------------------------
D|--------------------------7-----------------------------------------------------------------------
A|-----------------------------9--7-----9-----------------------------------------------------------
E|--3--3--3--3--3--3--3--3--------------------------0--0--0--0--0--0--0--0--0--0--0--0--5--5--5--5--
B|--------------------------------------------------------------------------------------------------

G|-----------------------------------------------------------------------------------------
D|--------------------------------------------------------------------------------7--------
A|--------------------------------------------------------------------5--7--9--9-----7--7--
E|--7--7--7--7--7--7--7--7--7--7--7--7--7--7--7--7--5--5--5--5--5--7-----------------------
B|-----------------------------------------------------------------------------------------

G|--------------------------------------------------------------------------------------------------
D|--------------------------------------------------------------------------------------------------
A|--------------------------------------------------------------------------------------------------
E|--3--3--3--3--3--3--3--3--3--3--3--3--3--3--3--3--0--0--0--0--0--0--0--0--0--0--0--0--5--5--5--5--
B|--------------------------------------------------------------------------------------------------

G|--------------------------------------------------------------------------------------------------
D|--------------------------------------------------------------------------------------------------
A|--------------------------------------------------------------------------------------------------
E|--7--7--7--7--7--7--7--7--7--7--7--7--7--7--7--7--5--5--5--5--5--5--5--5--5--5--5--5--5--5--5--5--
B|--------------------------------------------------------------------------------------------------
    (Whole Notes)
G|-----------------------------------------
D|-----------------------------------------
A|--------------5-----------------------5--
E|--3-----------------------3--------------
B|-----------------------------------------
    Verse3: x2 Whole Notes
G|-----------------------------------------------------------------------------------------------
D|-----------------------------------------------------------------------------------------------
A|--10----------5-----------10----------5-----------10----------5-----------2-----------5--------
E|--------------------------------------------------------------------------------------------5--
B|-----------------------------------------------------------------------------------------------
    Outro
G|-----
D|-----
A|-----
E|--3v-
B|-----
tabs and chords, guitar tabs, music transcription, music technology, deep learning, music information retrieval, transcribe into tabs & chords, chordify, music renditions, songsterr, reverbnation, tabulature, bollywood chords, ultimate guitar, yousician, guitar lessons, acoustic guitar, electric guitar, guitar tuner, 911 tabs