Guitar Tabs for Here As In Heaven (guitar 1 Lead)

    Intro:
E|--------------------------------------------------------------------------------------------------------------------------
B|--------------7-----------------------7-----------------------7-----------3-----------7-----------------------------------
G|--4-----------------6-----4-----------------6-----4-----------------6-----------------------6-----------------------------
D|--------------------------------------------------------------------------------------------------------------------------
A|--------------5-----------------------5-----------------------5-----------2-----------5-----------------------------------
E|--3-----------------------3-----------------------3-----------------------------------------------------------------------
    Verse1: x2   
E|--------------------------------------------------------------------------------------------------------------------------
B|--------------7-----------------------7-----------------------7-----------3-----------7-----------------------------------
G|--4-----------------6-----4-----------------6-----4-----------------6-----------------------6-----------------------------
D|--------------------------------------------------------------------------------------------------------------------------
A|--------------5-----------------------5-----------------------5-----------2-----------5-----------------------------------
E|--3-----------------------3-----------------------3-----------------------------------------------------------------------
    Chorus1: x1
E|--------2--------------2--------------5--------------5-----------------2--------------2--------------5--------------5-----
B|-----------0--------------0--------------5--------------------------------0--------------0--------------5-----------------
G|-----2--------------2--------------7--------------6-----6-----------2--------------2--------------7--------------6-----6--
D|--0--------------0--------------0--------------0-----------------0--------------0--------------0--------------0-----------
A|--------------------------------------------------------------------------------------------------------------------------
E|--------------------------------------------------------------------------------------------------------------------------
    Chorus1 (Continued):
E|--7-----------------------------------------------------------------------------------------------------------------------
B|--0--------7--------------------------------------------------------------------------------------------------------------
G|--7--------------6--------------------------------------------------------------------------------------------------------
D|--5-----------------------------------------------------------------------------------------------------------------------
A|-----------5--------------------------------------------------------------------------------------------------------------
E|--------------------------------------------------------------------------------------------------------------------------  
    Verse2: x2
E|--------------------------------------------------------------------------------------------------------------------------
B|--------------7-----------------------7-----------------------7-----------3-----------7-----------------------------------
G|--4-----------------6-----4-----------------6-----4-----------------6-----------------------6-----------------------------
D|--------------------------------------------------------------------------------------------------------------------------
A|--------------5-----------------------5-----------------------5-----------2-----------5-----------------------------------
E|--3-----------------------3-----------------------3-----------------------------------------------------------------------
    Chorus2: x2
E|--------2--------------2--------------5--------------5-----------------2--------------2--------------5--------------5-----
B|-----------0--------------0--------------5--------------------------------0--------------0--------------5-----------------
G|-----2--------------2--------------7--------------6-----6-----------2--------------2--------------7--------------6-----6--
D|--0--------------0--------------0--------------0-----------------0--------------0--------------0--------------0-----------
A|--------------------------------------------------------------------------------------------------------------------------
E|--------------------------------------------------------------------------------------------------------------------------
    Chorus2 (Continued):    
E|--7-----------------------------------------------------------------------------------------------------------------------
B|--0--------7--------------------------------------------------------------------------------------------------------------
G|--7--------------6--------------------------------------------------------------------------------------------------------
D|--5-----------------------------------------------------------------------------------------------------------------------
A|-----------5--------------------------------------------------------------------------------------------------------------
E|--------------------------------------------------------------------------------------------------------------------------
    Bridge: 
E|--7-----------7-----------2-----------0-----------7-----------7-----------2-----------0-----------------------------------
B|--0-----------0-----------3-----------2-----------0-----------0-----------3-----------2-----------------------------------
G|--7-----------7-----------2-----------2-----------7-----------7-----------2-----------2-----------------------------------
D|--5-----------5-----------4-----------2-----------5-----------5-----------4-----------2-----------------------------------
A|--------------------0-----2-----------0-----------------------------0-----2-----------0-----------------------------------
E|--------------------------2-----------------------------------------------2-----------------------------------------------
    Bridge: x3
E|--------------------------------------------------------------------------------------------------------------------------
B|-----------------7-----7--------------------------------7-----7-----------------------------------------------------------
G|--4--4--4--4--4-----4-----4v-------------4--4--4--4--4-----4---------4\2v--------2/6v-------------------------------------
D|--------------------------------------------------------------------------------------------------------------------------
A|--------------------------------------------------------------------------------------------------------------------------
E|--------------------------------------------------------------------------------------------------------------------------
    Bridge:
E|--------------------------------------------------------------------------------------------------------------------------
B|-----------------7-----7--------------------------------7-----7-----------------------------------------------------------
G|--4--4--4--4--4-----4-----4v-------------4--4--4--4--4-----4---------4\2v-----2/6--6--6--6--6-----------------------------
D|--------------------------------------------------------------------------------------------------------------------------
A|--------------------------------------------------------------------------------------------------------------------------
E|--------------------------------------------------------------------------------------------------------------------------
    Solo: x2
E|-----------------------------------7--------------------------------------------------------------------------------------
B|--7--------10-7-----------7-----------7-----------7-----10-7-----------7-----7-----7-----7--------------------------------
G|-----4v-----------9b10-------4v-----------9b10-------4v--------9b10-------6-----6-----6-----6-----------------------------
D|--------------------------------------------------------------------------------------------------------------------------
A|--------------------------------------------------------------------------------------------------------------------------
E|--------------------------------------------------------------------------------------------------------------------------
    Solo: x2
E|-----------------------------------------------7--------------------------------------------------------------------------
B|--7-----7--------10-7-----------7-----7-----------7-----------7-----7-----10-7-----------7-----7-----7-----7--------------
G|-----4-----4v-----------9b10-------4-----4v-----------9b10-------4-----4v--------9b10-------6-----6-----6-----6-----------
D|--------------------------------------------------------------------------------------------------------------------------
A|--------------------------------------------------------------------------------------------------------------------------
E|--------------------------------------------------------------------------------------------------------------------------
    Solo (Continued):
E|--7-----------------------------------------------------------------------------------------------------------------------
B|--0-----------7-----------------------7-----------------------------------------------------------------------------------
G|--7-----------------6-----4-----------------6-----------------------------------------------------------------------------
D|--5-----------------------------------------------------------------------------------------------------------------------
A|--------------5-----------------------5-----------------------------------------------------------------------------------
E|--------------------------3-----------------------------------------------------------------------------------------------
    Verse3: x2
E|--------------------------------------------------------------------------------------------------------------------------
B|--------------7-----------------------7-----------------------7-----------3-----------7-----------------------------------
G|--4-----------------6-----4-----------------6-----4-----------------6-----------------------6-----------------------------
D|--------------------------------------------------------------------------------------------------------------------------
A|--------------5-----------------------5-----------------------5-----------2-----------5-----------------------------------
E|--3-----------------------3-----------------------3-----------------------------------------------------------------------
    Outro:
E|-----------------------------
B|-----------------------------
G|--4--------------------------
D|-----------------------------
A|-----------------------------
E|--3--------------------------

tabs and chords, guitar tabs, music transcription, music technology, deep learning, music information retrieval, transcribe into tabs & chords, chordify, music renditions, songsterr, reverbnation, tabulature, bollywood chords, ultimate guitar, yousician, guitar lessons, acoustic guitar, electric guitar, guitar tuner, 911 tabs