Guitar Tabs for Heavy Load - Little Lies

(/) Slide Up  (\) Slide Down  (h) Hammer On  (p) Pull Off  (b) Bend (r) Release (v) Vibrato (x) Muted

Tabs for Song : 

Cant Believe the.....
E|-----
B|-----
G|-----
D|--9--
A|--7--
E|-----
Lies i hear.
E|-----
B|-----
G|-----
D|--5--
A|--3--
E|-----

Can`t Believe its....
E|-----
B|-----
G|-----
D|-----
A|--7--
E|--5--
True....

E|--------
B|--------
G|--------
D|--7-----
A|--5--
E|-----
Can`t believe the lies i hear
When they`re coming for you.
(Met dezelfde akkoorden)

Bij dat slide stukje weet ik ook niet echt wat je moet doen haha.
E|-----------------------------------------------------------2x
B|-----------------------------------------------------------
G|-----------------------------------------------------------
D|--9--------9--------9--------9--------9--------9--7--11----
A|--7--7--7--7--7--7--7--7--7--7--7--7--7--7--7--7--5--9-----
E|-----------------------------------------------------------

E|--------------------------------------------------------------------------------------------------------------
B|--------------------------------------------------------------------------------------------------------------
G|--------------------------------------------------------------------------------------------------------------
D|-----5--------5--------5--------5--------5--------5--------5--------5--------7--------7--7--------7--------7--
A|-----3--3--3--3--3--3--3--3--3--3--3--3--3--3--3--3--3--3--3--3--3--3--------5--5--5--5--5--5--5--5--5--5--5--
E|--------------------------------------------------------------------------------------------------------------


I could have known my life had been torn. 
i was a dreamer how could i been so blind.
E|-----------------------------------------------------------x2
B|-----------------------------------------------------------
G|-----------------------------------------------------------
D|--9--------9--------9--------9--------9--------9--7--11----
A|--7--7--7--7--7--7--7--7--7--7--7--7--7--7--7--7--5--9-----
E|-----------------------------------------------------------
  
The Lies you`ve made me swallow, i swallowed every single......


E|-----------------------------------------------------------------------
B|-----------------------------------------------------------------------
G|-----------------------------------------------------------------------
D|--5--------5--------5--------5--------5--------5--------5--------5--
A|--3--3--3--3--3--3--3--3--3--3--3--3--3--3--3--3--3--3--3--3--3--3--
E|--------------------------------------------------------------------

Oneeeeeeee


E|-----------------------------------------
B|-----------------------------------------
G|-----------------------------------------
D|-----7--------7--7--------7--------7--7--
A|-----5--5--5--5--5--5--5--5--5--5--5--5--
E|-----------------------------------------

I Should have you played me a fool
I was a dreamer how could i be so blind

Those lies youve made me swallow
i swallowed every single one.
(Met dezelfde akkorden als vorige chorus)

Your little.....


E|--------
B|--------
G|--------
D|--5-----
A|--3-----
E|--------

Lies.....

E|--------
B|--------
G|--------
D|--7-----
A|--5-----
E|--------
 
 Made me wise
E|-----
B|-----
G|-----
D|--9--
A|--7--
E|-----

Yout little lies made me wise
(Met zelfde riff)

Your.....

E|--------
B|--------
G|--------
D|-----5--
A|-----3--
E|--------

Little Lies.....

E|--------
B|--------
G|--------
D|-----7--
A|-----5--
E|--------

Made me wise.

E|--------
B|--------
G|--------
D|-----4--
A|-----2--
E|--------
no clue wat er met die teskt heir is gebeurd.
Rifo------------------------------------------------------r achter solo.E|-----
B|--------------------------------------------------------
G|--------------------------------------------------------
D|--9--------9--------9--------9--------9--------9--7--11-
A|--7--7--7--7--7--7--7--7--7--7--7--7--7--7--7--7--5--9--
E|--------------------------------------------------------

I could have sworn
I'd heard that before
Those little lies
Won't hurt me anymore
Yes, in the end I made it
I made it clear to everyone
(Met dezelfde riffs van het begin)

Your little lies made me wise!
Your Little lies made me wise!
Your little lies made me wise!
(Met dezelfde Chorus riffs van te voren) 

Paste any tab in acousterr's tab maker and we'll play it !!!
Now supports capo and sound effects for vibrato/pull-off/hammer/bends/mutes etc !!! Checkout help section
tabs and chords, guitar tabs, music transcription, music technology, deep learning, music information retrieval, transcribe into tabs & chords, chordify, music renditions, songsterr, reverbnation, tabulature, bollywood chords, ultimate guitar, yousician, guitar lessons, acoustic guitar, electric guitar, guitar tuner, 911 tabs