Guitar Tabs for Heavy

(/) Slide Up  (\) Slide Down  (h) Hammer On  (p) Pull Off  (b) Bend (r) Release (v) Vibrato (x) Muted

Tabs for Song : heavy linkin park

I don't like my mind right now
Stacking up problems that are so unnecessary
Wish that I could slow things down
E|-----------------------------------------------------------------------------------------------
B|-----------------------------------------------------------------------------------------------
G|-----------------------------------------------------------------------------------------------
D|--2-----------2--4--------2--2--2--2--2--2--2--2--4--------------------2-----------2--4--------
A|-----5--4--5--------4--------------------------------4--4--2--2--4--------5--4--5--------4-----
E|-----------------------------------------------------------------------------------------------
I wanna let go but there's comfort in the panic
And I drive myself crazy
Thinking everything's about me
E|-----------------------------------------------------------------------------------------------
B|-----------------------------------------------------------------------------------------------
G|-----------------------------------------------------------------------------------------------
D|--2--2--2--2--2--2--2--4---------------------4h-6/7--7--7---7/9--4------4h6--7--7--7--7--9--4--
A|--------------------------4--4--2--2--0--------------------------------------------------------
E|-----------------------------------------------------------------------------------------------
Yeah I drive myself crazy
Cause I can't escape the gravity
I'm holding on
Why is everything so heavy
E|--------------------------------------------------------------------------------------------------
B|--------------------------------------------------------7--10-9--7-----------------------------7--
G|--------------------------------------------------------------------9-----9--9--9--9--9--6--9-----
D|---4h-6/7--7--7---7/9--4------4h6--7--7--7--7--9--4-----------------------------------------------
A|--------------------------------------------------------------------------------------------------
E|--------------------------------------------------------------------------------------------------
Im holding on
There's so much more than I can carry
I keep dragging around what's bringing me down
E|--------------------------------------------------------------------------------
B|--7--10-9--7-----------------------------7--------------------------------7-----
G|--------------9-----9--9--9--9--9--6--9---------6h7--9--9--9--9--6--9--9-----6--
D|--------------------------------------------------------------------------------
A|--------------------------------------------------------------------------------
E|--------------------------------------------------------------------------------
If I just let go I'll be set free
I'm holding on
Why is everything so heavy
E|--------------------------------------------------------------------------
B|--------------7-----------------7--10-9--7--------------------------------
G|---6h7--9--9-----6--------------------------9-----9--9--9--9--9--6---9/11-
D|--------------------9--9--7-----------------------------------------------
A|--------------------------------------------------------------------------
E|--------------------------------------------------------------------------
you say that i'm paranoid
but i'm pretty sure the world is out to get me


E|-----------------------------------------------------------------------
B|-----------------------------------------------------------------------
G|--9--7--6--7--9---9/11-6-----9--9--9--9--9--9--11-6--6--------6--------
D|--------------------------------------------------------9--9-----------
A|-----------------------------------------------------------------------
E|-----------------------------------------------------------------------

Song lyrics here
E|--
B|--
G|--
D|--
A|--
E|--

Paste any tab in acousterr's tab maker and we'll play it !!!
Now supports capo and sound effects for vibrato/pull-off/hammer/bends/mutes etc !!! Checkout help section
tabs and chords, guitar tabs, music transcription, music technology, deep learning, music information retrieval, transcribe into tabs & chords, chordify, music renditions, songsterr, reverbnation, tabulature, bollywood chords, ultimate guitar, yousician, guitar lessons, acoustic guitar, electric guitar, guitar tuner, 911 tabs