Heart Of Ocean - Lulukkkk - Guitar Tabs

Guitar
    
                                                                                                                                                                                                                                                                                                                                                                                                                                                                                                                                                                                                                                                                                                                                                                                                                                                                                                                                                                                                                                                                                                                                                                                              
E|-------------------------|-----------------------|
B|-----5--------3--------8-|------7------7p8--7----|
G|--------5--------4-------|7--------7-----------7-|
D|-------------------------|-----------------------|
A|--0--------0--------0----|---0-------------------|
E|-------------------------|-----------------------|

    
                                                                                                                                                                                                                                                                                                                                                                                                                                                                                                                                                                                                                                                                                                                                                                                                                                                                                                                                                                                                                                                                                                                                                                                              
E|-------------------------|------5----------------|
B|-----5--------3--------8-|------7----------------|
G|--------5--------4-------|7-----7----------------|
D|-------------------------|-----------------------|
A|--0--------0--------0----|---0--0----------------|
E|-------------------------|-----------------------|

    
                                                                                                                                                                                                                                                                                                                                                                                                                                                                                                                                                                                                                                                                                                                                                                                                                                                                                                                                                                                                                                                                                                                                                                                              
E|-------------------------|-----------------------|
B|-----5--------3--------8-|------7------7p8--7----|
G|--------5--------4-------|7--------7-----------7-|
D|-------------------------|-----------------------|
A|--0--------0--------0----|---0-------------------|
E|-------------------------|-----------------------|

    
                                                                                                                                                                                                                                                                                                                                                                                                                                                                                                                                                                                                                                                                                                                                                                                                                                                                                                                                                                                                                                                                                                                                                                                              
E|-------------------------|------------10----10---|
B|-----5--------3--------8-|------7-----8-----7----|
G|--------5--------4-------|7--------7--7--------7-|
D|-------------------------|-----------------------|
A|--0--------0--------0----|---0--------0-----0----|
E|-------------------------|-----------------------|

    
                                                                                                                                                                                                                                                                                                                                                                                                                                                                                                                                                                                                                                                                                                                                                                                                                                                                                                                                                                                                                                                                                                                                                                                              
E|-------------------------|-----------------------|
B|-----5--------3--------8-|------7------7p8--7----|
G|--------5--------4-------|7--------7-----------7-|
D|-------------------------|-----------------------|
A|--0--0--0--0--0--0--0--0-|0--0--0--0---0p0--0--0-|
E|-------------------------|-----------------------|

    
                                                                                                                                                                                                                                                                                                                                                                                                                                                                                                                                                                                                                                                                                                                                                                                                                                                                                                                                                                                                                                                                                                                                                                                              
E|-------------------------|------5----------------|
B|-----5--------3--------8-|------7----------------|
G|--------5--------4-------|7-----7----------------|
D|-------------------------|-----------------------|
A|--0--0--0--0--0--0--0--0-|0--0--0--0-------------|
E|-------------------------|-----------------------|

    
                                                                                                                                                                                                                                                                                                                                                                                                                                                                                                                                                                                                                                                                                                                                                                                                                                                                                                                                                                                                                                                                                                                                                                                              
E|-------------------------|-----------------------|
B|-----5--------3--------8-|------7------7p8--7----|
G|--------5--------4-------|7--------7-----------7-|
D|-------------------------|-----------------------|
A|--0--0--0--0--0--0--0--0-|0--0--0--0---0p0--0--0-|
E|-------------------------|-----------------------|

    
                                                                                                                                                                                                                                                                                                                                                                                                                                                                                                                                                                                                                                                                                                                                                                                                                                                                                                                                                                                                                                                                                                                                                                                              
E|-------------------------|------------10----10---|
B|-----5--------3--------8-|------7-----8-----7----|
G|--------5--------4-------|7--------7--7-----7----|
D|-------------------------|---------------------0-|
A|--0--0--0--0--0--0--0--0-|0--0--0--0--0--0--0----|
E|-------------------------|-----------------------|

    
                                                                                                                                                                                                                                                                                                                                                                                                                                                                                                                                                                                                                                                                                                                                                                                                                                                                                                                                                                                                                                                                                                                                                                                              
E|--------4--------5-------|4-----------------2----|
B|--2--------2--------2----|---2-----5--------5----|
G|-------------------------|------------2-----2----|
D|-----4-------------------|---------------4--4----|
A|-------------------------|------------------4----|
E|--2-----------2--------2-|------2--------------2-|

    
                                                                                                                                                                                                                                                                                                                                                                                                                                                                                                                                                                                                                                                                                                                                                                                                                                                                                                                                                                                                                                                                                                                                                                                              
E|-----0------------2p0----|---------------0-------|
B|--------3----------------|---3--2-----7-----5----|
G|-----------2-----------2-|---------2--7-----6----|
D|--0-----------0----------|0-----------0-----0----|
A|-------------------------|-----------------------|
E|-------------------------|-----------------------|

    
                                                                                                                                                                                                                                                                                                                                                                                                                                                                                                                                                                                                                                                                                                                                                                                                                                                                                                                                                                                                                                                                                                                                                                                              
E|--0--------0--------2----|------0----------------|
B|--------3--------------3-|---------3------2p3--2-|
G|-------------------------|-----------------------|
D|-----4-----------4-------|---4-------------------|
A|--2-----------2----------|2-----------2----------|
E|-------------------------|-----------------------|

    
                                                                                                                                                                                                                                                                                                                                                                                                                                                                                                                                                                                                                                                                                                                                                                                                                                                                                                                                                                                                                                                                                                                                                                                              
E|-------------------------|0--------0--------0----|
B|--3--------3--------3----|---------------------2-|
G|--------0--------------0-|------2----------------|
D|-----0-----------0-------|---2-----------2-------|
A|-------------------------|0-----------0----------|
E|--3-----------3----------|-----------------------|

    
                                                                                                                                                                                                                                                                                                                                                                                                                                                                                                                                                                                                                                                                                                                                                                                                                                                                                                                                                                                                                                                                                                                                                                                              
E|--2--------0-------------|-----------------------|
B|-----------------------3-|---------2------3p2----|
G|--------4-----------4----|------4--------------2-|
D|-----4-----------4-------|---4-------------------|
A|--2-----------2----------|2-----------2----------|
E|-------------------------|-----------------------|

    
                                                                                                                                                                                                                                                                                                                                                                                                                                                                                                                                                                                                                                                                                                                                                                                                                                                                                                                                                                                                                                                                                                                                                                                              
E|-------------------------|-----------------------|
B|--0--------0--------0----|2--------2------3p2----|
G|--------0--------------0-|------2--------------2-|
D|-----0-----------0-------|---2-------------------|
A|-------------------------|0-----------0----------|
E|--3-----------3----------|-----------------------|

    
                                                                                                                                                                                                                                                                                                                                                                                                                                                                                                                                                                                                                                                                                                                                                                                                                                                                                                                                                                                                                                                                                                                                                                                              
E|--2--------0-------------|-----------------------|
B|-----------------------3-|---------2------3p2----|
G|--------4-----------4----|------4--------------2-|
D|-----4-----------4-------|---4-------------------|
A|--2-----------2----------|2-----------2----------|
E|-------------------------|-----------------------|

    
                                                                                                                                                                                                                                                                                                                                                                                                                                                                                                                                                                                                                                                                                                                                                                                                                                                                                                                                                                                                                                                                                                                                                                                              
E|-------------------------|-----------------------|
B|--3--------3--------3----|2--------2--------2----|
G|--------0--------------0-|------2--------------2-|
D|-----0-----------0-------|---2-----------2-------|
A|-------------------------|0-----------0----------|
E|--3-----------3----------|-----------------------|

    
                                                                                                                                                                                                                                                                                                                                                                                                                                                                                                                                                                                                                                                                                                                                                                                                                                                                                                                                                                                                                                                                                                                                                                                              
E|--0----------------------|---------0-------------|
B|--3----------------------|---------5-------------|
G|--4----------------------|---------5-------------|
D|--4----------------------|---------5-------------|
A|--2----------------------|---------3-------------|
E|-------------------------|-----------------------|

    
                                                                                                                                                                                                                                                                                                                                                                                                                                                                                                                                                                                                                                                                                                                                                                                                                                                                                                                                                                                                                                                                                                                                                                                              
E|-------------------------|-----------------------|
B|-----5--------3--------8-|------7------7p8--7----|
G|--------5--------4-------|7--------7-----------7-|
D|-------------------------|-----------------------|
A|--0--------0--------0----|---0-------------------|
E|-------------------------|-----------------------|

    
                                                                                                                                                                                                                                                                                                                                                                                                                                                                                                                                                                                                                                                                                                                                                                                                                                                                                                                                                                                                                                                                                                                                                                                              
E|-------------------------|------5----------------|
B|-----5--------3--------8-|------7----------------|
G|--------5--------4-------|7-----7----------------|
D|-------------------------|-----------------------|
A|--0--------0--------0----|---0--0----------------|
E|-------------------------|-----------------------|

    
                                                                                                                                                                                                                                                                                                                                                                                                                                                                                                                                                                                                                                                                                                                                                                                                                                                                                                                                                                                                                                                                                                                                                                                              
E|-------------------------|-----------------------|
B|-----5--------3--------8-|------7------7p8--7----|
G|--------5--------4-------|7--------7-----------7-|
D|-------------------------|-----------------------|
A|--0--------0--------0----|---0-------------------|
E|-------------------------|-----------------------|

    
                                                                                                                                                                                                                                                                                                                                                                                                                                                                                                                                                                                                                                                                                                                                                                                                                                                                                                                                                                                                                                                                                                                                                                                              
E|-------------------------|------------10----10---|
B|-----5--------3--------8-|------7-----8-----7----|
G|--------5--------4-------|7--------7--7--------7-|
D|-------------------------|-----------------------|
A|--0--------0--------0----|---0--------0-----0----|
E|-------------------------|-----------------------|

    
                                                                                                                                                                                                                                                                                                                                                                                                                                                                                                                                                                                                                                                                                                                                                                                                                                                                                                                                                                                                                                                                                                                                                                                              
E|-------------------------|-----------------------|
B|-----5--------3--------8-|------7------7p8--7----|
G|--------5--------4-------|7--------7-----------7-|
D|-------------------------|-----------------------|
A|--0--0--0--0--0--0--0--0-|0--0--0--0---0p0--0--0-|
E|-------------------------|-----------------------|

    
                                                                                                                                                                                                                                                                                                                                                                                                                                                                                                                                                                                                                                                                                                                                                                                                                                                                                                                                                                                                                                                                                                                                                                                              
E|-------------------------|------5----------------|
B|-----5--------3--------8-|------7----------------|
G|--------5--------4-------|7-----7----------------|
D|-------------------------|-----------------------|
A|--0--0--0--0--0--0--0--0-|0--0--0--0-------------|
E|-------------------------|-----------------------|

    
                                                                                                                                                                                                                                                                                                                                                                                                                                                                                                                                                                                                                                                                                                                                                                                                                                                                                                                                                                                                                                                                                                                                                                                              
E|-------------------------|-----------------------|
B|-----5--------3--------8-|------7------7p8--7----|
G|--------5--------4-------|7--------7-----------7-|
D|-------------------------|-----------------------|
A|--0--0--0--0--0--0--0--0-|0--0--0--0---0p0--0--0-|
E|-------------------------|-----------------------|

    
                                                                                                                                                                                                                                                                                                                                                                                                                                                                                                                                                                                                                                                                                                                                                                                                                                                                                                                                                                                                                                                                                                                                                                                              
E|-------------------------|------------10----10---|
B|-----5--------3--------8-|------7-----8-----7----|
G|--------5--------4-------|7--------7--7-----7----|
D|-------------------------|---------------------0-|
A|--0--0--0--0--0--0--0--0-|0--0--0--0--0--0--0----|
E|-------------------------|-----------------------|
tabs and chords, guitar tabs, music transcription, music technology, deep learning, music information retrieval, transcribe into tabs & chords, chordify, music renditions, songsterr, reverbnation, tabulature, bollywood chords, ultimate guitar, yousician, guitar lessons, acoustic guitar, electric guitar, guitar tuner, 911 tabs