Guitar Tabs for Hdf

(/) Slide Up  (\) Slide Down  (h) Hammer On  (p) Pull Off  (b) Bend (r) Release (v) Vibrato (x) Muted

Tabs for Song : 

Song lyrics here
E|--------------------------------------------------------
B|--------------------------------------------------------
G|-----------2-----------2-----------------------0-----2--
D|-----0-----------0-----------0-----5-----4--------------
A|--0-----0-----0-----0-----0-----0-----0-----0-----0-----
E|--------------------------------------------------------

Song lyrics here
E|--------------------------------------------------------
B|--------------------------------------------------------
G|-----------2-----------2-----------------------0-----2--
D|-----0-----------0-----------0-----5-----4--------------
A|--0-----0-----0-----0-----0-----0-----0-----0-----0-----
E|--------------------------------------------------------

E|--------------------------------------
B|--------------------------------------
G|-----------2-----4-----2--------------
D|-----0-----------------------4-----0--
A|--0-----0-----0-----0-----0-----0-----
E|--------------------------------------

E|--------------------------------------------------------
B|--------------------------------------------------------
G|-----------2-----------2-----------------------0-----2--
D|-----2-----------2-----------2-----5-----4--------------
A|--0-----0-----0-----0-----0-----0-----0-----0-----0-----
E|--------------------------------------------------------

E|--------------------------------------------------------
B|--------------------------------------------------------
G|-----------2-----------2-----------------------0-----2--
D|-----2-----------2-----------2-----5-----4--------------
A|--0-----0-----0-----0-----0-----0-----0-----0-----0-----
E|--------------------------------------------------------


E|--------------------------------------
B|--------------------------------------
G|-----------2-----4-----2--------------
D|-----2-----------------------4-----0--
A|--0-----0-----0-----0-----0-----0-----
E|--------------------------------------



Paste any tab in acousterr's tab maker and we'll play it !!!
Now supports capo and sound effects for vibrato/pull-off/hammer/bends/mutes etc !!! Checkout help section
tabs and chords, guitar tabs, music transcription, music technology, deep learning, music information retrieval, transcribe into tabs & chords, chordify, music renditions, songsterr, reverbnation, tabulature, bollywood chords, ultimate guitar, yousician, guitar lessons, acoustic guitar, electric guitar, guitar tuner, 911 tabs