Guitar Tabs for Haal e dil

Tabs for Song : Haal E Dil

ae kash kash unn hota
E|-----------------------------------
B|-----------------------------------
G|--0---0h2-----5--5--4--2--2--0-----
D|-----------------------------------
A|-----------------------------------
E|-----------------------------------

har shaam sath tu hota
E|-----------------------------
B|-----------------------------
G|-----------4--4--2--0--2-----
D|--3--5-----------------------
A|-----------------------------
E|-----------------------------

chup chap dil na unn rota
E|-----------------------------------------
B|-----------------5-----------------------
G|--0---0h2-----5-----5-----5--4--2--0-----
D|-----------------------------------------
A|-----------------------------------------
E|-----------------------------------------

har shaam sath tu hota
E|-----------------------------
B|-----------------------------
G|-----------4--4--2--0--2-----
D|--3--5-----------------------
A|-----------------------------
E|-----------------------------

guzara ho tere bin guzara ab mushkil hai lagta
E|--------------4--2-----------------------------------------
B|--2--2--4--5-----------4--5--7--5-----2--5--5--4--2--4-----
G|-----------------------------------------------------------
D|-----------------------------------------------------------
A|-----------------------------------------------------------
E|-----------------------------------------------------------

nazara ho tera hi nazara ab har din hai lagta
E|--------------4--2-----------------------------------------
B|--2--2--4--5-----------4--5--7--5-----2--5--5--4--2--4-----
G|-----------------------------------------------------------
D|-----------------------------------------------------------
A|-----------------------------------------------------------
E|-----------------------------------------------------------


haal e dil tujhko sunata
E|--------------------------------
B|--------------------------------
G|--9--7--9--9--9--10-9--7--7-----
D|--------------------------------
A|--------------------------------
E|--------------------------------

dil agar ye bol pata
E|-----------------------------------
B|-----------------------------------
G|--7-----5--7--7--7--9--7--5--5-----
D|-----------------------------------
A|-----------------------------------
E|-----------------------------------

bakhuda tujhko hai jate jaan..haan
E|-----------------------------------------------
B|-----------------------------------------------
G|--5-----4--5--5--5--7--5--4--4--4-----5--7-----
D|-----------------------------------------------
A|-----------------------------------------------
E|-----------------------------------------------

tere sang jo pal bitata
E|--------------------------------
B|--------------------------------
G|--9--7--9--9--9--10-9--7--7-----
D|--------------------------------
A|--------------------------------
E|--------------------------------

waqt se mein wo maang lata
E|-----------------------------------
B|-----------------------------------
G|--7-----5--7--7--7--9--7--5--5-----
D|-----------------------------------
A|-----------------------------------
E|-----------------------------------

yaad karke muskurata haan
E|--------------------------------------
B|--------------------------------------
G|--5-----4--5--5--5--7--5--4--4--4-----
D|--------------------------------------
A|--------------------------------------
E|--------------------------------------

woho ..o...ho..o..ho
E|-----------------------------------
B|-----------------------------------
G|-----------------------------------
D|--2--4--5--7-----5--7--5--4--2-----
A|-----------------------------------
E|-----------------------------------

woho ..o...ho..o..ho
E|--------------------------------------------------
B|--------------------------------------------------
G|--------------------------2-----2-----0--2--------
D|--4--5--4--5--4--2--0--2-----4-----2--------4-----
A|--------------------------------------------------
E|--------------------------------------------------

tu meri raah ka sitara
E|--------------------------------------
B|--------------------------------------
G|--9--9--9--7--9--7--5--4---5\7--5-----
D|--------------------------------------
A|--------------------------------------
E|--------------------------------------

tere bina hoon mein awara
E|--------------------------------------
B|--------------------------------------
G|--5--5--5--7--5--4--4--5---7\9--7-----
D|--------------------------------------
A|--------------------------------------
E|--------------------------------------

jab bhi tanhai ne sataya
E|--------------------------------------
B|--------------------------------------
G|--9--9--9--7--9--7--5--4---5\7--5-----
D|--------------------------------------
A|--------------------------------------
E|--------------------------------------

tujhko besakhta pukara..
E|--------------------------------------
B|--------------------------------------
G|--5--5--5--7--5--4--4--5---7\9--7-----
D|--------------------------------------
A|--------------------------------------
E|--------------------------------------

chahat hai meri la fana
E|--------------------------------
B|--------------------------------
G|--7--7--7--9--7--5--4--2--0-----
D|--------------------------------
A|--------------------------------
E|--------------------------------

per meri jaan dil mein hoon rakhta
E|-----------------------------------------------
B|-----------------------------------------------
G|--5--5--4--2--------4--2---4\5--7--9--7--9-----
D|--------------2--2-----------------------------
A|-----------------------------------------------
E|-----------------------------------------------

tabs and chords, guitar tabs, music transcription, music technology, deep learning, music information retrieval, transcribe into tabs & chords, chordify, music renditions, songsterr, reverbnation, tabulature, bollywood chords, ultimate guitar, yousician, guitar lessons, acoustic guitar, electric guitar, guitar tuner, 911 tabs