Guitar Tabs for Guru Viledage

(/) Slide Up  (\) Slide Down  (h) Hammer On  (p) Pull Off  (b) Bend (r) Release (v) Vibrato (x) Muted

Tabs for Song : 

Song lyrics here
E|--------------------------------------------------------------------------------
B|--------------------------------------------------------------------------------
G|--3--------3--3--3--3--3--1--3--------3--3--3--3--3-----1--3--------3--3--3--3--
D|--------------------------------------------------------------------------------
A|--------------------------------------------------------------------------------
E|--------------------------------------------------------------------------------

Song lyrics here
E|-----------------------------------------------------------------------1-----------1--1--2--4--
B|--------------------------------------------------------------1--3--4--------------------------
G|--3-----------------------------------------3-----------3--3-----------------------------------
D|-----3--3--3-----3--3--3-----3--3--3-----3-----3-----------------------------------------------
A|-----------------------------------------------------------------------------------------------
E|-----------------------------------------------------------------------------------------------

Paste any tab in acousterr's tab maker and we'll play it !!!
Now supports capo and sound effects for vibrato/pull-off/hammer/bends/mutes etc !!! Checkout help section

E|--6--------6--6--6--4--2--4--2--1-----------1--2--------1--------------1--------
B|--------------------------------------4--4-----------------4--2--2--4-----4--2--
G|--------------------------------------------------------------------------------
D|--------------------------------------------------------------------------------
A|--------------------------------------------------------------------------------
E|--------------------------------------------------------------------------------

E|-----------0--3--1-----------------------------------------------------------
B|--1--1--3-----------------------------------------------------------1--3--4--
G|--------------------------------------------------------3-----3--3-----------
D|--------------------3--3--3-----3--3--3-----3--3--3--3-----3-----------------
A|-----------------------------------------------------------------------------
E|-----------------------------------------------------------------------------

E|--1--------1--1--2--4--6--------9--8--5-----1--2-----6--5--1-----1--
B|--------------------------------------------------------------------
G|--------------------------------------------------------------------
D|--------------------------------------------------------------------
A|--------------------------------------------------------------------
E|--------------------------------------------------------------------

E|--2-----6--5--1--------------2--1--------------------0--3-----1--
B|--------------------3--4-----------2--------1--1--3--------------
G|-----------------------------------------3-----------------------
D|-----------------------------------------------------------------
A|-----------------------------------------------------------------
E|-----------------------------------------------------------------

E|--------------------------------------------------------------1--------1--1--2--4--
B|-----------------------------------------------------1--3--4-----------------------
G|--------------------------------------3--------3--3--------------------------------
D|--3--3--3-----3--3--3-----3--3--3--3-----3-----------------------------------------
A|-----------------------------------------------------------------------------------
E|-----------------------------------------------------------------------------------

E|--6--------6--6--6--4--2--4--2-----1--------1--2-----1--------------1--------
B|--------------------------------------4--4--------------4--2--2--4-----4--2--
G|-----------------------------------------------------------------------------
D|-----------------------------------------------------------------------------
A|-----------------------------------------------------------------------------
E|-----------------------------------------------------------------------------

E|-----------0-----3--1-----------------------------------------------------------------
B|--1--1--3--------------------------------------------------------------------1--3--4--
G|-----------------------------------------------------------3-----------3--3-----------
D|-----------------------3--3--3-----3--3--3-----3--3--3--3-----3-----------------------
A|--------------------------------------------------------------------------------------
E|--------------------------------------------------------------------------------------

E|--1--------1--1--2--4--6--------9--8--5--------1--2--------6--5--1-----1--
B|--------------------------------------------------------------------------
G|--------------------------------------------------------------------------
D|--------------------------------------------------------------------------
A|--------------------------------------------------------------------------
E|--------------------------------------------------------------------------

E|--2--------6--5--1--------------------2--1--------------
B|--------------------------3--4--------------2-----------
G|-----------------------------------------------------3--
D|--------------------------------------------------------
A|--------------------------------------------------------
E|--------------------------------------------------------

E|-----------0--------3--1-----------------------------------------
B|--1--1--3--------------------------------------------------------
G|-----------------------------------------------------------------
D|--------------------------3--3--3-----3--3--3-----3--3--3-----3--
A|-----------------------------------------------------------------
E|-----------------------------------------------------------------

tabs and chords, guitar tabs, music transcription, music technology, deep learning, music information retrieval, transcribe into tabs & chords, chordify, music renditions, songsterr, reverbnation, tabulature, bollywood chords, ultimate guitar, yousician, guitar lessons, acoustic guitar, electric guitar, guitar tuner, 911 tabs