Ukulele Tabs for Gulabi Ankhen Atif

(/) Slide Up  (\) Slide Down  (h) Hammer On  (p) Pull Off  (b) Bend (r) Release (v) Vibrato

Tabs for Song : Gulabi Ankhen

Gulabi ankhen jo teri dekhi....
A|-----------------3-----3-----3--2--3-----5-----2--
E|-----0--0--0--------------------------------------
C|--------------------------------------------------
G|--------------------------------------------------

Sarabi ye dil ho gaya...
A|-----2--0--2-----3-----0--------0--------2--
E|-----------------------------------4--------
C|--------------------------------------------
G|--------------------------------------------


shambhalo mujhko
A|-----------------3-----3--------3--2--3-----5-----2--
E|-----0--0--0-----------------------------------------
C|-----------------------------------------------------
G|-----------------------------------------------------

shambhalna mushkil...
A|-----2--0--2-----3-----0-----0--------2--
E|--------------------------------4--------
C|-----------------------------------------
G|-----------------------------------------

Now supports capo and sound effects for vibrato/pull-off/hammer/bends etc !!! Checkout help section
tabs and chords, guitar tabs, music contests, music covers, songsterr, reverbnation, renditions, tabulature, bollywood chords, ultimate guitar, yousician, guitar lessons, torrins, fender, gibson, acoustic guitar, electric guitar, youtube covers, gootar, guitar tuner, A-Z tabs, 911 tabs