Guitar Tabs for Gulabi Aankhain - Tabs

Tabs for Gulabi Aankhain

Gulabi ankhe jo teri dekhi
E|-----------8-----8-----8--7--8--10----7--
B|--5--5--5--------------------------------
G|-----------------------------------------
D|-----------------------------------------
A|-----------------------------------------
E|-----------------------------------------

Sharabi Ye dil ho gya

E|-----7--5--7--8-----5--------4-----5--7-----
B|--------------------------------------------
G|--------------------------------------------
D|--------------------------------------------
A|--------------------------------------------
E|--------------------------------------------

Sambhalo mujhko O mere Yaaro

E|-----0--0--0--8-----8-----8--7--8--10----7-----
B|-----------------------------------------------
G|-----------------------------------------------
D|-----------------------------------------------
A|-----------------------------------------------
E|-----------------------------------------------

Sambhalna mushkil ho gaya ...

E|--7--5--7--8-----5--------4-----5--7--------
B|--------------------------------------------
G|--------------------------------------------
D|---------------------------------------------
A|--------------------------------------------
E|--------------------------------------------
tabs and chords, guitar tabs, music transcription, music technology, deep learning, music information retrieval, transcribe into tabs & chords, chordify, music renditions, songsterr, reverbnation, tabulature, bollywood chords, ultimate guitar, yousician, guitar lessons, acoustic guitar, electric guitar, guitar tuner, 911 tabs