Guitar Tabs for Gulabi Ankhin

(/) Slide Up  (\) Slide Down  (h) Hammer On  (p) Pull Off  (b) Bend (r) Release (v) Vibrato (x) Muted

Tabs for Song : Gulabi Ankhin

Intro
E|--------10-12-------
B|--12-13-------------
G|--------------------
D|--------------------
A|--------------------
E|--------------------

E|--13-12-13-12-10----------10-
B|-----------------13-12-13----
G|-----------------------------
D|-----------------------------
A|-----------------------------
E|-----------------------------

E|--10----10-------------------
B|-----13----13-12-10----10-12-
G|--------------------13-------
D|-----------------------------
A|-----------------------------
E|-----------------------------

Song Part:

Gulaabi aankhen jo teri dekhi
E|-----------8--8--8--8--8--7--8--8--10-7--
B|--5--5--5--------------------------------
G|-----------------------------------------
D|-----------------------------------------
A|-----------------------------------------
E|-----------------------------------------

Sharaabi yeh dil ho gaya
E|--7-----7--8--------------7--
B|-----10-------10-10-9--10----
G|-----------------------------
D|-----------------------------
A|-----------------------------
E|-----------------------------

Sambhaalo mujhko o mere yaaron 
E|-----------8--8--8--8--8--7--8--8--10-7--
B|--5--5--5--------------------------------
G|-----------------------------------------
D|-----------------------------------------
A|-----------------------------------------
E|-----------------------------------------

Sambhalna mushkil ho gaya
E|--7-----7--8--------------7--
B|-----10-------10-10-9--10----
G|-----------------------------
D|-----------------------------
A|-----------------------------
E|-----------------------------

Dil mein mere khwaab tere 
E|-----4--7--------5--8-----
B|--5--------5--6--------6--
G|--------------------------
D|--------------------------
A|--------------------------
E|--------------------------

Bas tere jaise ho deewaar pe
E|-----------5--8--7--5--------------------
B|--6--6--8--------------8--6--6--8--6--5--
G|-----------------------------------------
D|-----------------------------------------
A|-----------------------------------------
E|-----------------------------------------


Tujhpe fida main kyoon hua
E|-----4--7--------5--8-----
B|--5--------5--6--------6--
G|--------------------------
D|--------------------------
A|--------------------------
E|--------------------------

Aata hai gussa mujhe pyaar pe 
E|-----------5--8--7--5--------------------
B|--6--6--8--------------8--6--6--8--6--5--
G|-----------------------------------------
D|-----------------------------------------
A|-----------------------------------------
E|-----------------------------------------

Main lut gaya
E|--7--8--10-12---
B|-----------------
G|-----------------
D|-----------------
A|-----------------
E|-----------------

maanke dil ka kaha 
E|--13-12-13-12-10-8--7--8--10-
B|-----------------------------
G|-----------------------------
D|-----------------------------
A|-----------------------------
E|-----------------------------

Main kahin tha na raha 
E|--12-10-12-10-8--7--5--7--8--
B|-----------------------------
G|-----------------------------
D|-----------------------------
A|-----------------------------
E|-----------------------------

Kya kahoon main dilruba
E|--10-8--10-8--7--5--4--5--7--
B|-----------------------------
G|-----------------------------
D|-----------------------------
A|-----------------------------
E|-----------------------------

Pura yeh jaadu teri aankhon ka 
E|-----------8--8--8--8--8--7--8--8--10-7--
B|--5--5--5--------------------------------
G|-----------------------------------------
D|-----------------------------------------
A|-----------------------------------------
E|-----------------------------------------

Yeh mera kaatil ho gaya 
E|--7-----7--8--------------7--
B|-----10-------10-10-9--10----
G|-----------------------------
D|-----------------------------
A|-----------------------------
E|-----------------------------









Paste any tab in acousterr's tab maker and we'll play it !!!
Now supports capo and sound effects for vibrato/pull-off/hammer/bends/mutes etc !!! Checkout help section
tabs and chords, guitar tabs, music transcription, music technology, deep learning, music information retrieval, transcribe into tabs & chords, chordify, music renditions, songsterr, reverbnation, tabulature, bollywood chords, ultimate guitar, yousician, guitar lessons, acoustic guitar, electric guitar, guitar tuner, 911 tabs