Bass Tabs for Quick Scale Reference Guide

(/) Slide Up  (\) Slide Down  (h) Hammer On  (p) Pull Off  (b) Bend (r) Release (v) Vibrato (x) Muted



A Major
G|-----------------|
D|-----------4-6-7-|
A|-----4-5-7-------|
E|-5-7-------------|


A minor
G|-----------------|
D|-------------5-7-|
A|-------5-7-8-----|
E|-5-7-8-----------|


Bb/A# major
G|-----------------|
D|-----------5-7-8-|
A|-----5-6-8-------|
E|-6-8-------------|


Bb/A# minor
G|-------------1-3-|
D|-------1-3-4-----|
A|-1-3-4-----------|
E|-----------------|


B major
G|-----------1-3-4-|
D|-----1-2-4-------|
A|-2-4-------------|
E|-----------------|


B minor
G|-------------2-4-|
D|-------2-4-5-----|
A|-2-4-5-----------|
E|-----------------|


C major
G|-----------2-4-5-|
D|-----2-3-5-------|
A|-3-5-------------|
E|-----------------|


C minor
G|-------------3-5-|
D|-------3-5-6-----|
A|-3-5-6-----------|
E|-----------------|


C#/Db major
G|-----------3-5-6-|
D|-----3-4-6-------|
A|-4-6-------------|
E|-----------------|


C#/Db minor
G|-------------4-6-|
D|-------4-6-7-----|
A|-4-6-7-----------|
E|-----------------|


D major
G|-----------4-6-7-|
D|-----4-5-7-------|
A|-5-7-------------|
E|-----------------|


D minor
G|-------------5-7-|
D|-------5-7-8-----|
A|-5-7-8-----------|
E|-----------------|


Eb/D# major
G|-----------5-7-8-|
D|-----5-6-8-------|
A|-6-8-------------|
E|-----------------|


Eb/D# minor
G|-------------6-8-|
D|-------6-8-9-----|
A|-6-8-9-----------|
E|-----------------|


E major
G|-----------6-8-9-|
D|-----6-7-9-------|
A|-7-9-------------|
E|-----------------|

G|-----------------|
D|-------------1-2-|
A|-------0-2-4-----|
E|-0-2-4-----------|


E minor
G|-----------------|
D|-------------0-2-|
A|-------0-2-3-----|
E|-0-2-3-----------|


F major
G|-----------------|
D|-----------0-2-3-|
A|-----0-1-3-------|
E|-1-3-------------|


F minor
G|-----------------|
D|-------------1-3-|
A|-------1-3-4-----|
E|-1-3-4-----------|


F#/Gb major
G|-----------------|
D|-----------1-3-4-|
A|-----1-2-4-------|
E|-2-4-------------|


F#/Gb minor
G|-----------------|
D|-------------2-4-|
A|-------2-4-5-----|
E|-2-4-5-----------|


G major
G|-----------------|
D|-----------2-4-5-|
A|-----2-3-5-------|
E|-3-5-------------|


G minor
G|-----------------|
D|-------------3-5-|
A|-------3-5-6-----|
E|-3-5-6-----------|


Ab/G# major
G|------------------|
D|------------3-5-6-|
A|-----3-4-6--------|
E|-4-6--------------|


Ab/G# minor
G|-----------------|
D|-------------4-6-|
A|-------4-6-7-----|
E|-4-6-7-----------|

tabs and chords, guitar tabs, music transcription, music technology, deep learning, music information retrieval, transcribe into tabs & chords, chordify, music renditions, songsterr, reverbnation, tabulature, bollywood chords, ultimate guitar, yousician, guitar lessons, acoustic guitar, electric guitar, guitar tuner, 911 tabs