Guitar Tabs for Guitar Sikhda - Jassie Gill

(/) Slide Up  (\) Slide Down  (h) Hammer On  (p) Pull Off  (b) Bend (r) Release (v) Vibrato

Tabs for Song : capo on 3rd fret Guitar Sikhda Intro

Part 1
E|-----------------------------1-----------------------------------1-----------------------------------1--------
B|-----1--------------------------1--------1--------------------------1--------1--------------------------1-----
G|-----0-----0-----2-----------------2-----0-----0-----2-----------------2-----0-----0-----2-----------------2--
D|-----------2-----3--------0--------------------2-----3--------0--------------------2-----3--------0-----------
A|-----3-----------0-----------------------3-----------0-----------------------3-----------0--------------------
E|-----------3-----------------------------------3-----------------------------------3--------------------------

Part 2
E|------------------------3p0-----
B|-----------1-----------------1--
G|-----2-----0-----0--------------
D|-----3-----------0--------------
A|-----------3-----2--------------
E|-----1--------------------------

Now supports capo and sound effects for vibrato/pull-off/hammer/bends etc !!! Checkout help section
tabs and chords, guitar tabs, music contests, music covers, songsterr, reverbnation, renditions, tabulature, bollywood chords, ultimate guitar, yousician, guitar lessons, torrins, fender, gibson, acoustic guitar, electric guitar, youtube covers, gootar, guitar tuner, A-Z tabs, 911 tabs