Guitar Tabs for Gucci Strain

(/) Slide Up  (\) Slide Down  (h) Hammer On  (p) Pull Off  (b) Bend (r) Release (v) Vibrato (x) Muted

Tabs for Song : 
BPM : 200

Song lyrics here
E|--3-----------------------------------0--
B|--3-----------------------------------2--
G|--4-----------------------------------2--
D|--5-----------------------------------2--
A|--5--------------------2--3--------6v-0--
E|--3--2--2--0--2--3--5---------5\6--------

Song lyrics here
E|--0--------------------------------------0--
B|--2--------------------------------------2--
G|--2--------------0--2--2--0--------------2--
D|--2--0--0--2--3--------------3--2--0--0--2--
A|--0--------------------------------------0--
E|--------------------------------------------

E|--0--0--0--0--0--3--3--0--0--0--0--0--2--0--2--4v-
B|--2--2--2--1--1--3--3--2--2--1--1--1--3--0--3--5v-
G|--2--2--2--0--0--4--4--2--2--2--2--0--2--1--2--6v-
D|--2--2--2--2--2--5--5--2--2--2--2--2--0--2--0--6v-
A|--0--0--0--3--3--5--5--0--0--0--0--3-----2-----4v-
E|-----------------3--3--------------------0--------

E|--3-----------------------------------------------------------------------------------------------
B|--3-----------------------------------------------------------------------------------------------
G|--4-----------------------------5v-0--0--2--12-12-------------------------------------------------
D|--5-----------------------5--7--------------------12-12-12----------------------------------------
A|--5-----------------------------------------------------------------------------------------------
E|--3--3--5---5h8v-10h12p10----------------------------------10-10-8--7--7--5--4--4--3--0--0--0--0--


E|--0--0--0--0--0--3--3--0--0--0--0--0--2--0--2--4v-
B|--2--2--2--1--1--3--3--2--2--1--1--1--3--0--3--5v-
G|--2--2--2--0--0--4--4--2--2--2--2--0--2--1--2--6v-
D|--2--2--2--2--2--5--5--2--2--2--2--2--0--2--0--6v-
A|--0--0--0--3--3--5--5--0--0--0--0--3-----2-----4v-
E|---
-
E|--3-----------------------------------------------------------------------------
B|--3-----------------------------------------------------------------------------
G|--4-----------------------------------------------------------------------------
D|--5-----------------------------------------2--2--4--4--5--4--2-----------------
A|--5--------------------2--2--3--3--5--5--5-----------------------5--4--2--------
E|--3--3--3--3--3--3--5-----------------------------------------------------5--3v-

E|--0--0-----------0--0--2--3--3--5--7--7--5--3--2--0--2--3v-
B|--1-----1--1--1--------------------------------------------
G|--0--------------------------------------------------------
D|--2--------------------------------------------------------
A|--3--------------------------------------------------------
E|-----------------------------------------------------------





Paste any tab in acousterr's tab maker and we'll play it !!!
Now supports capo and sound effects for vibrato/pull-off/hammer/bends/mutes etc !!! Checkout help section

Bass Tabs for Gucci Strain






G|--------------------------------------------------------------
D|--------------------------------------------------------------
A|--------------------------3-----------3-----------------------
E|--3--3--3--3--3--2--1--0-----3--3--3-----3--3--3--3--2--1--0--




G|--------------------------------------------------
D|--------------------------------------------------
A|--0--0--0--0--------------------------------------
E|--------------4--4--4--4--5--5--5--5--4--4---4/3--



G|-----------------------------------------------
D|-----------------------------------0-----0-----
A|--0--0--0--3--3--------0--0--0--0-----------4--
E|-----------------3--3-----------------0--------



G|--
D|--
A|--
E|--




G|--
D|--
A|--
E|--



G|--
D|--
A|--
E|--



G|--
D|--
A|--
E|--

Piano Tabs for Gucci Strain






2|-----------------
3|--g--g--g--g--g--
4|-----------------
5|-----------------




2|-----------------------
3|--a--a--f--f--f--D#-d--
4|-----------------------
5|-----------------------



2|--
3|--
4|--
5|--



2|--
3|--
4|--
5|--




2|--
3|--
4|--
5|--



2|--
3|--
4|--
5|--



2|--
3|--
4|--
5|--

tabs and chords, guitar tabs, music transcription, music technology, deep learning, music information retrieval, transcribe into tabs & chords, chordify, music renditions, songsterr, reverbnation, tabulature, bollywood chords, ultimate guitar, yousician, guitar lessons, acoustic guitar, electric guitar, guitar tuner, 911 tabs