Guitar Tabs for Greensleeves - Unknown

Greensleeves - Unknown

1st Part

E|-----------0---1p0-----------------------------------------
B|-----1--3-----------3--0--------0--1--------------0--------
G|--2-----------------------0--2--------2--2--1--2-----1-----
D|--------------------------------------------------------2--
A|-----0-----3-----------------------0-----0-----------------
E|--------------------3-----0-----------------------0--------

E|-----------0---1p0--------------------------------------
B|-----1--3-----------3--0--------0--1--------------------
G|--2-----------------------0--2--------4--2--1-----1--2--
D|-----------------------------------------------4--------
A|-----0-----3-----------------------0-----------------0--
E|--------------------3-----0-----------------0-----------


2nd Part

E|--3--3--3---2p0-----------------------------------------
B|-----------------3--0--------0--1--------------0--------
G|-----------------------0--2--------2--2--1--2-----1-----
D|--------2--------------------------------------------2--
A|--3-----------------------------0-----0-----------------
E|-----------------3-----0-----------------------0--------

E|--3--3--3---2p0-----------------------------------------
B|-----------------3--0--------0--1-----------------------
G|-----------------------0--2--------4--2--1--1-----1--2--
D|--------2--------------------------------------4--------
A|--3-----------------------------0--------------------0--
E|-----------------3-----0--------------------0-----------






tabs and chords, guitar tabs, music transcription, music technology, deep learning, music information retrieval, transcribe into tabs & chords, chordify, music renditions, songsterr, reverbnation, tabulature, bollywood chords, ultimate guitar, yousician, guitar lessons, acoustic guitar, electric guitar, guitar tuner, 911 tabs