Guitar Tabs for Unknown

(/) Slide Up  (\) Slide Down  (h) Hammer On  (p) Pull Off  (b) Bend (r) Release (v) Vibrato (x) Muted

Tabs for Song : Unknown
BPM : 200

Song lyrics here 
E|-----------------------------------------------------
B|-----------------------------------------------------
G|-----------------------------------------------------
D|-----------------------------------------------------
A|-----------------------------------------------------
E|--1-----1--2--1--2--1--2--5-----5--6--5--6--5--2--1--

E|-----------------------------------------------------
B|-----------------------------------------------------
G|-----------------------------------------------------
D|-----------------------------------------------------
A|--1-----1--2--1--2--1--2--5-----5--6--5--6--5--2--1--
E|--1-----1--2--1--2--1--2--5-----5--6--5--6--5--2--1--

E|--------------------------------------------------
B|--------------------------------------------------
G|--------------------------------------------------
D|--------------------------------------------------
A|--------------------5-----------------------------
E|--1-----1--2--1--2--------1-----1--2--1--2--5-----

E|--------------------------------------------------
B|--------------------------------------------------
G|--------------------------------------------------
D|--------------------------------------------------
A|--1-----1--2--1--2--5-----1-----1--2--1--2--5--2--
E|--1-----1--2--1--2--------1-----1--2--1--2--5--2--

E|--------------------------------------------------
B|--------------------------------------------------
G|--------------------------------------------------
D|--------------------------------------------------
A|--1-----1--2--1--2--------1-----1--2--1--2--5--2--
E|--1-----1--2--1--2--0-----1-----1--2--1--2--5--2--

E|-----------------------------------------------------
B|-----------------------------------------------------
G|-----------------------------------------------------
D|-----------------------------------------------------
A|--1-----1--2--1--2--0-----1-----1--2--1--2--5--2--1--
E|--1-----1--2--1--2--0-----1-----1--2--1--2--5--2--1--

E|-----------------------------------
B|-----------------------------------
G|-----------------------------------
D|-----------------------------------
A|-----------------------------------
E|--0-0-0-0-1-----0-0-----0--1--------

E|--------------------------------
B|--------------------------------
G|--------------------------------
D|--------------------------------
A|--------------------------------
E|--0--0--0--0--1-----0--0-----0--

E|---------------------------------------------------
B|---------------------------------------------------
G|---------------------------------------------------
D|---------------------------------------------------
A|---------------------------------------------------
E|--2--1--0--2--1--0--2--1--2--1--0--2--1--0--2--1---


E|-----------------------------------------------------------------------------
B|-----------------------------------------------------------------------------
G|-----------------------------------------------------------------------------
D|-----------------------------------------------------------------------------
A|-----------------------------------------------------------------------------
E|--1-----1--2--1--2--1--2--5-----5--6--5--6--5--2--0--0--0--0--0--0--0--0-----
Song lyrics here 



Use manual mode to free up cursor. Paste any tab in acousterr tab maker and we'll play it !!!


On the third part, the opens are played while pressing on the strings above the guitar nut while releasing pressure to give it a descending sound.


































tabs and chords, guitar tabs, music transcription, music technology, deep learning, music information retrieval, transcribe into tabs & chords, chordify, music renditions, songsterr, reverbnation, tabulature, bollywood chords, ultimate guitar, yousician, guitar lessons, acoustic guitar, electric guitar, guitar tuner, 911 tabs