Guitar Tabs for Got You Bitch

(/) Slide Up  (\) Slide Down  (h) Hammer On  (p) Pull Off  (b) Bend (r) Release (v) Vibrato

Tabs for Song : 

Song lyrics here
E|-----------------------------------------------------------------------------
B|-----------------------------------------------------------------------------
G|--------0--0--0--0--2-----------------------2-----------3--3--3--2--2--2--0--
D|--3-----------------------3-----3--3--3--3--------3-----------------------0--
A|-----------------------------3-----------------------3-----------------------
E|-----------------------------------------------------------------------------

Song lyrics here
E|--------------------------------------------------------------------------------------
B|--------------------------------------------------------------------------------------
G|--0--0--0--0--2-----------------------2-----------3--3--3--2--2--2--0-----------------
D|--------------------3-----3--3--3--3--------3--------------------------3--2--2--3--3--
A|-----------------------3-----------------------3-----------------------------------3--
E|-----------------------------------------------------------------------------------0--

E|-----------------------------------------------------------------------------
B|-----------------------------------------------------------------------------
G|-----------------------------5-----------------------5--3--3--3--------------
D|--3-----5--5--5--5--7-----3--5--3--3--3--3--7-----3--5--3--3--3--7--7--7--5--
A|--3-----5--5--5--5--7-----3--3--3--3--3--3--7-----3--3--1--1--1--7--7--7--5--
E|--1-----3--3--3--3--5-----1-----1--1--1--1--5-----1--------------5--5--5--3--

E|-----------------------------------------------------------------------------------------
B|-----------------------------------------------------------------------------------------
G|-----------------------5-----------------------5--3--3--3-----------------------------5--
D|--5--5--5--5--7-----3--5--3--3--3--3--7-----3--5--3--3--3--7--7--7--5--3--2--2--2--3--5--
A|--5--5--5--5--7-----3--3--3--3--3--3--7-----3--3--1--1--1--7--7--7--5--3--2--2--2--3--3--
E|--3--3--3--3--5-----1-----1--1--1--1--5-----1--------------5--5--5--3--1--0--0--0--1-----


E|-----x--x--------x--------x--x--x--x--x--x--------------
B|-----x--x--------x--------x--x--x--x--x--x--------------
G|-----x--x--------x--------x--x--x--x--x--x--------------
D|-----x--x--3-----x--3-----x--x--x--x--x--x--3-----5--7--
A|-----x--x--3-----x--3-----x--x--x--x--x--x--3-----5--7--
E|-----x--x--1-----x--1-----x--x--x--x--x--x--1-----3--5--

E|-----x--x--------x--------x--x--x--x--x--x--------------
B|-----x--x--------x--------x--x--x--x--x--x--------------
G|-----x--x--------x--------x--x--x--x--x--x--------3--5--
D|-----x--x--3-----x--3-----x--x--x--x--x--x--3-----3--5--
A|-----x--x--3-----x--3-----x--x--x--x--x--x--3-----1--3--
E|-----x--x--1-----x--1-----x--x--x--x--x--x--1-----------



E|-----------------------------------------------------
B|-----------------12----------------------12----------
G|-----12----12-14----14-12-14-12----12-14----14-12-12-
D|--------14----------------------14-------------------
A|-----------------------------------------------------
E|-----------------------------------------------------

E|-----------------------------------------------------
B|--------------12----------------------15----12-------
G|--12----12-14----14-12-14-14-12-14-12----14----14-12-
D|-----14----------------------------------------------
A|-----------------------------------------------------
E|-----------------------------------------------------

E|--------------------------------------------------------------------------------------------
B|--------------------------------------------------------------------------------------------
G|--10----12-12-12-12-14----10-5-----10-10-10-10-14----10-5-----10----15-15-15-14-14-14-12----
D|--------------------------------------------------------------------------------------------
A|--8-----10-10-10-10-12----8--3-----8--8--8--8--12----8--3-----8-----13-13-13-12-12-12-10----
E|--------------------------------------------------------------------------------------------

E|-----------------------------------------------------------------------------------------------------------------
B|-----------------------------------------------------------------------------------------------------------------
G|--10----12-12-12-12-14----10-5-----10-10-10-10-14----10-5-----10----15-15-15-14-14-14-12----10----9--9--9--10-5--
D|-----------------------------------------------------------------------------------------------------------------
A|--8-----10-10-10-10-12----8--3-----8--8--8--8--12----8--3-----8-----13-13-13-12-12-12-10----8-----7--7--7--8--3--
E|-----------------------------------------------------------------------------------------------------------------


Now supports capo and sound effects for vibrato/pull-off/hammer/bends etc !!! Checkout help section
tabs and chords, guitar tabs, music contests, music covers, songsterr, reverbnation, renditions, tabulature, bollywood chords, ultimate guitar, yousician, guitar lessons, torrins, fender, gibson, acoustic guitar, electric guitar, youtube covers, gootar, guitar tuner, A-Z tabs, 911 tabs