Guitar Tabs for She Got Nothin'

(/) Slide Up  (\) Slide Down  (h) Hammer On  (p) Pull Off  (b) Bend (r) Release (v) Vibrato (x) Muted

Tabs for Song : She Got Nothin' - Them Evils
All music played 1/2 step down. D# G# C# F# A# D#

Intro
E|-----------------------------------------------------------------------
B|-----------------------------------------------------------------------
G|-----------------------------------------------------------------------
D|--7-----7-----5--7--5--------------------------------------------------
A|-----------------------7v----6--7--6--5-----5-----3--4--5--------------
E|-----------------------------------------------------------3-----3--5--

E|--------------------------------------------------------------------------
B|--------------------------------------------------------------------------
G|--------------------------------------------------------------------------
D|--7-----7-----5--7--5-----------------------------------------------------
A|-----------------------7v----6--7--6--5-----5-----3--4--5-----------------
E|-----------------------------------------------------------3-----3---4b5--

Verse 1

E|--------------------x--------------------------------x--------------------------------x--------------------------------
B|--2-----2-----2-----x--------------2-----2-----2-----x--------------2-----2-----2-----x--------------2-----------------
G|--2-----2-----2-----x--------------2-----2-----2-----x--------------2-----2-----2-----x--------------2--------------2--
D|--2-----2-----2-----x--------------2-----2-----2-----x--------------2-----2-----2-----x--------------2-----------------
A|--0-----0-----0-----x---3p0---3b4--0-----0-----0-----x---3p0---3b4--0-----0-----0-----x---3p0---3b4--0------0h-3h4-----
E|--------------------x--------------------------------x--------------------------------x--------------------------------

E|--------------------x--------------------------------x--------------------------------x--------------0--0--0--0--0--0--0--0--
B|--2-----2-----2-----x--------------2-----2-----2-----x--------------2-----2-----2-----x--------------2--2--2--2--2--2--2--2--
G|--2-----2-----2-----x--------------2-----2-----2-----x--------------2-----2-----2-----x--------------2--2--2--2--2--2--2--2--
D|--2-----2-----2-----x--------------2-----2-----2-----x--------------2-----2-----2-----x--------------2--2--2--2--2--2--2--2--  
A|--0-----0-----0-----x---3p0---3b4--0-----0-----0-----x---3h0---3b4--0-----0-----0-----x--3--0---3b4--0--0--0--0--0--0--0--0--
E|--------------------x--------------------------------x--------------------------------x--------------------------------------

Pre-Chorus
E|-----------------------------------------------------------------------------------------------------
B|-----------------------------------------------------------------------------------------------------
G|--5-----5-----5--5--5--5--5-----5-----5--5--5--5--5-----5-----5--5--------------14b15----12b13-------
D|--4-----4-----4--4--4--4--4-----4-----4--4--4--4--4-----4-----4--4--------------------------------14v
A|--5-----5-----5--5--5--5--5-----5-----5--5--5--5--5-----5-----5--5-----------------------------------
E|-----------------------------------------------------------------------------------------------------

E|--0-----0-----0-----x--------------0--0--0--0--0--0--0--0--
B|--2-----2-----2-----x--------------2--2--2--2--2--2--2--2--
G|--2-----2-----2-----x--------------2--2--2--2--2--2--2--2--
D|--2-----2-----2-----x--------------2--2--2--2--2--2--2--2--
A|--0-----0-----0-----x---3p0---3b4--0--0--0--0--0--0--0--0--
E|--------------------x--------------------------------------


Chorus
Momma' love me, Momma' love me more. 
Cuz ya' know that she be wastin' all my time.
She got nothin' for me
E|--0-----------------------------------------
B|--0-----------------------------------------
G|--1-----------------5--5--5--5--5--5--5--5--
D|--2-----------------4--4--4--4--4--4--4--4--
A|--2-----------------5--5--5--5--5--5--5--5--
E|--0-----------------------------------------

Song reverts back to intro, verse, pre-chorus, and chorus.


Section is played four times. Last two are played with octave. Tabbed under this section.

E|-----------------------------------------------------------------------
B|-----------------------------------------------------------------------
G|-----------------------------------------------------------------------
D|--7-----7-----5--7--5--------------------------------------------------
A|-----------------------7v----6--7--6--5-----5-----3--4--5--------------
E|-----------------------------------------------------------3-----3--5--

E|-----------------------------------------------------------------------
B|-----------------------------------------------------------------------
G|--14----14----12-14-12-------------------------------------------------
D|-----------------------14v---13-14-13-12----12----10-11-12-------------
A|-----------------------------------------------------------10----10-12-
E|-----------------------------------------------------------------------


Solo
E|--------------5--------------------------------------10-11-12----------
B|-----------------8--5-----------------------12b13b14----------12b13-10v
G|---7b8-----------------7--5--5v----------------------------------------
D|-----------------------------------------------------------------------
A|-----------------------------------------------------------------------
E|-----------------------------------------------------------------------

E|--------8--10----------8--10-8--------------------------------------------
B|-----x--------------x-----------10----------10v------9v----8v-------7--6--
G|--x--------------x--------------------------------------------------------
D|--------------------------------------------------------------------------
A|--------------------------------------------------------------------------
E|--------------------------------------------------------------------------

Emaj
Momm' love me, Momma' love me more
D7
Cuz ya know that she be wastin' all my time
She got nothin' for me


E|-----------------------------------------------------------------------20b22----20b22-22r20-17----17----
B|-----------------------------------------------------------------------------------------------20-------
G|--------5--7---7/14v---14v---14v------------5--7---7/14v------------------------------------------------
D|---5h7---------------------------------5h7--------------------------------------------------------------
A|--------------------------------------------------------------------------------------------------------
E|--------------------------------------------------------------------------------------------------------

E|--17h20p17----17----------------------------
B|-----------20----20-17-20-17----------------
G|-----------------------------19b21-17v------
D|--------------------------------------------
A|-----------------------------------------0v-
E|--------------------------------------------


Outro

Section is played four times. Exactly like section before the solo.
E|-----------------------------------------------------------------------
B|-----------------------------------------------------------------------
G|-----------------------------------------------------------------------
D|--7-----7-----5--7--5--------------------------------------------------
A|-----------------------7v----6--7--6--5-----5v----3--4--5--------------
E|-----------------------------------------------------------3-----3--5--

E|-----------------------------------------------------------------------
B|-----------------------------------------------------------------------
G|--14----14----12-14-12-------------------------------------------------
D|-----------------------14v---13-14-13-12----12----10-11-12-------------
A|-----------------------------------------------------------10----10-12-
E|-----------------------------------------------------------------------


Momma' love me, Momma' love me more
Cuz you know that she be wastin' all my time.
E|--0----------------------------------------------
B|--0----------------------------------------------
G|--1--------------------5--5--5--5--5--5--5--5----
D|--2--------------------4--4--4--4--4--4--4--4----
A|--2--------------------5--5--5--5--5--5--5--5----
E|--0----------------------------------------------



tabs and chords, guitar tabs, music contests, music covers, songsterr, reverbnation, renditions, tabulature, bollywood chords, ultimate guitar, yousician, guitar lessons, torrins, fender, gibson, acoustic guitar, electric guitar, youtube covers, gootar, guitar tuner, A-Z tabs, 911 tabs