Guitar Tabs for Got Me Rockin'

(/) Slide Up  (\) Slide Down  (h) Hammer On  (p) Pull Off  (b) Bend (r) Release (v) Vibrato (x) Muted

Tabs for Song : Got Me Rockin - Them Evils
All Music 1/2 Step Down D# G# C# F# A# D#
Song is played through a JHS modded Electro Harmonix POG and Pigtronix Envelope Filter

Intro
E|--------------------------------------------------------------------------------------------------------------
B|--------------------------------------------------------------------------------------------------------------
G|--------------------------------------------------------------------------------------------------------------
D|--0--2---------------------5b6--------0--2---------------------5b6v----------0--2---------------------5b6-----
A|---------------------5h7--------7v-----------------------5h7------------------------------------5h7--------7--
E|---------3p0---3/5---------------------------3p0---3/5------------------------------3p0---3/5-----------------



E|--------------------------------------
B|--------------------------------------
G|--------------------------------------
D|--7--5--------------------------5--7--
A|--------7--6--5--3--5--3--5--3--------
E|--------------------------------3--5--

Verse 
Repeat 2x
E|-----------------------------------------------------------------------------------------
B|-----------------------------------------------------------------------------------------
G|-----------------------------------------------------------------------------------------
D|-----------------------------------------------------------------------------------------
A|---5h7-----------------------------------------------------------------------------------
E|------------------3h5------------3h5-----------5--3v----0-----------0--3--5-----0--3--5--

E|-----------------------------------------------------------
B|-----------------------------------------------------------
G|-----------------------------------------------------------
D|-----------------------------------------------------------
A|---5h7-----------------------------------------------------
E|------------------3h5------------3h5-----------5--3v----0--

E|--------------------------------------------------------------------------------------------------------
B|--------------------------------------------------------------------------------------------------------
G|--------------------------------------------------------------------------------------------------------
D|--0--2---------------------5b6--------0--2---------------------5b6v----0--2---------------------5b6-----
A|---------------------5h7--------7------------------------5h7------------------------------5h7--------7--
E|---------3p0---3/5---------------------------3b0---3/5------------------------3p0---3/5-----------------

E|--------------------------------------
B|--------------------------------------
G|--------------------------------------
D|--7--5--------------------------5--7--
A|--------7--6--5--3--5--3--5--3--------
E|--------------------------------3--5--

Chorus
E|--------------------------------------------------------------------------------------------------------------
B|--------------------------------------------------------------------------------------------------------------
G|--------------------------------------------------------------------------------------------------------------
D|--0--2-----2--2--2--2--0--2--0--------0--2-----2--2--2--2--0--2--0--------0--2-----2--2--2--2--0--2--0--------
A|--------------------------------2-----------------------------------2-----------------------------------2-----
E|--------0--------------------------3--------0--------------------------3--------0--------------------------3--

E|--------------------------------
B|--------------------------------
G|---------------------------2b3--
D|--0--2-----2--2--2--2--0--------
A|--------------------------------
E|--------0-----------------------

E|--------------------------------------------------------------------------------------------------------------
B|--------------------------------------------------------------------------------------------------------------
G|--------------------------------------------------------------------------------------------------------------
D|--0--2-----2--2--2--2--0--2--0--------0--2-----2--2--2--2--0--2--0--------0--2-----2--2--2--2--0--2--0--------
A|--------------------------------2-----------------------------------2-----------------------------------2-----
E|--------0--------------------------3--------0--------------------------3--------0--------------------------3--

E|-----------------------------------------
B|-----------------------------------------
G|-----------------------------------------
D|-----------------------------------------
A|-----------------------------------------
E|-----3--5--5--5-----5--3--5--3---5b6--0--


Solo 1
E|--------------------------12----------------------15b17v---15b17v---------15-12----------------------------------------------
B|--12b13----------15b17-------15-------------------------------------------------15-12----------------------12-14-------12-14-
G|--12b13-------------------------14b15-12----------------------------------------------14-12----------------12-14-------12-14-
D|--------------------------------------------------------------------------------------------14v---------14----------14-------
A|-----------------------------------------------------------------------------------------------------------------------------
E|-----------------------------------------------------------------------------------------------------------------------------


Verse 2
E|-----------------------------------------------------------------------------------------
B|-----------------------------------------------------------------12-14-------12-14-------
G|-----------------------------------------------------------------12-14-------12-14-------
D|--------------------------------------------------------------14----------14-------------
A|---5h7-----------------------------------------------------------------------------------
E|------------------3h5------------3h5--------5--3v----0-----------------------------------

E|-----------------------------------------------------------
B|-----------------------------------------------------------
G|-----------------------------------------------------------
D|-----------------------------------------------------------
A|---5h7-----------------------------------------------------
E|------------------3h5------------3h5-----------5--3v----0--

E|--------------------------------------------------------------------------------------------------------
B|--------------------------------------------------------------------------------------------------------
G|--------------------------------------------------------------------------------------------------------
D|--0--2---------------------5b6--------0--2---------------------5b6v----0--2---------------------5b6-----
A|---------------------5h7--------7------------------------5h7------------------------------5h7--------7--
E|---------3p0---3/5---------------------------3p0---3/5------------------------3p0---3/5-----------------

E|--------------------------------------
B|--------------------------------------
G|--14-12-------------------------------
D|--------14-13-12-10-12-10-12-10-------
A|--------------------------------10-12-
E|--------------------------------------

Chorus 2
E|--------------------------------------------------------------------------------------------------------------
B|--------------------------------------------------------------------------------------------------------------
G|--------------------------------------------------------------------------------------------------------------
D|--0--2-----2--2--2--2--0--2--0--------0--2-----2--2--2--2--0--2--0--------0--2-----2--2--2--2--0--2--0--------
A|--------------------------------2-----------------------------------2-----------------------------------2-----
E|--------0--------------------------3--------0--------------------------3--------0--------------------------3--

E|--------------------------------
B|--------------------------------
G|---------------------------2b3--
D|--0--2-----2--2--2--2--0--------
A|--------------------------------
E|--------0-----------------------

E|--------------------------------------------------------------------------------------------------------------
B|--------------------------------------------------------------------------------------------------------------
G|--------------------------------------------------------------------------------------------------------------
D|--0--2-----2--2--2--2--0--2--0--------0--2-----2--2--2--2--0--2--0--------0--2-----2--2--2--2--0--2--0--------
A|--------------------------------2-----------------------------------2-----------------------------------2-----
E|--------0--------------------------3--------0--------------------------3--------0--------------------------3--

E|-----------------------------------------
B|-----------------------------------------
G|-----------------------------------------
D|-----------------------------------------
A|-----------------------------------------
E|-----3--5--5--5-----5--3--5--3---5b6--0--

Solo 2
E|--------------------------------------------------12----------------------------15b17v---15b17v------15b17----15b17----12v
B|--14b15v------14p12----14b15----12v---------15b17----15-12\11-------------------------------------------------------------
G|--14b15v------14p12----14b15----12v---------------------------14----12----------------------------------------------------
D|-----------------------------------------------------------------14-------------------------------------------------------
A|--------------------------------------------------------------------------------------------------------------------------
E|--------------------------------------------------------------------------------------------------------------------------

E|--15p12----12----------------------------------------------------------------------------------------------------------
B|--------15----15-12-15p12----12-------------------------------------------------------15----------15----------15-------
G|--------------------------14----14-12-14p12----12-------------------------------14b15-------14b15-------14b15-------12v
D|--------------------------------------------14----14-12-14p12----12----------------------------------------------------
A|--------------------------------------------------------------14----14-13----------------------------------------------
E|-----------------------------------------------------------------------------------------------------------------------

E|--17b19----19----19r17p15----15-------20b22----20b22----20-17----------------------------------12----------12----------12----------12-------
B|--------------------------17----------------------------------20-17-------------------------12----------12----------12----------12----15b17v
G|--------------------------------------------------------------------19-17-------------14b15-------14b15-------14b15-------14b15-------------
D|--------------------------------------------------------------------------19v---------------------------------------------------------------
A|--------------------------------------------------------------------------------------------------------------------------------------------
E|--------------------------------------------------------------------------------------------------------------------------------------------

Octave riff after solo. Played with envelope filter or Wah Pedal.
E|--------------------------------------------------------------------------------------------------------------------
B|--------------------------------------------------------------------------------------------------------------------
G|--7--9-----9--9--9--9--7--9--7-----0-----7--9-----9--9--9--9--7--9--7-----0-----7--9-----9--9--9--9--7--9--7-----0--
D|--------------------------------9--------------------------------------9--------------------------------------9-----
A|--------7--------------------------------------7--------------------------------------7-----------------------------
E|--------------------------------------------------------------------------------------------------------------------

E|---------------------------------
B|-----------------------------10b12v
G|-----7--9-----9--9--9--9--7--------
D|-----------------------------------
A|-----------7-----------------------
E|-----------------------------------


Chorus
E|--------------------------------------------------------------------------------------------------------------------------
B|--------------------------------------------------------------------------------------------------------------------------
G|--------------------------------------------------------------------------------------------------------------------------
D|--0--2-----2--2--2--2--0--2--0-----------0--2-----2--2--2--2--2--0--2--0-----------0--2-----2--2--2--2--0--2--0-----------
A|--------------------------------2-----------------------------------------2--------------------------------------2--------
E|--------0--------------------------3-----------0-----------------------------3-----------0--------------------------3-----

E|--------------------------------
B|--------------------------------
G|---------------------------2b3--
D|--0--2-----2--2--2--2--0--------
A|--------------------------------
E|--------0-----------------------

E|--------------------------------------------------------------------------------------------------------------------
B|--------------------------------------------------------------------------------------------------------------------
G|--------------------------------------------------------------------------------------------------------------------
D|--0--2-----2--2--2--2--0--2--0-----------0--2-----2--2--2--2--0--2--0-----------0--2-----2--2--2--2--0--2--0--------
A|--------------------------------2--------------------------------------2--------------------------------------2-----
E|--------0--------------------------3-----------0--------------------------3-----------0--------------------------3--

E|-----------------------------------------
B|-----------------------------------------
G|-----------------------------------------
D|-----------------------------------------
A|-----------------------------------------
E|-----3--5--5--5-----5--3--5--3---5b6--0--


Outro
E|--------------------------------------------------------------------------------------------------------
B|--------------------------------------------------------------------------------------------------------
G|--------------------------------------------------------------------------------------------------------
D|--0--2---------------------5b6--------0--2---------------------5b6v----0--2---------------------5b6-----
A|---------------------5h7--------7------------------------5h7------------------------------5h7--------7--
E|---------3p0---3/5---------------------------3p0---3/5------------------------3p0---3/5-----------------

E|--------------------------------------
B|--------------------------------------
G|--------------------------------------
D|--7--5--------------------------5--7--
A|--------7--6--5--3--5--3--5--3--------
E|--------------------------------3--5--



tabs and chords, guitar tabs, music transcription, music technology, deep learning, music information retrieval, transcribe into tabs & chords, chordify, music renditions, songsterr, reverbnation, tabulature, bollywood chords, ultimate guitar, yousician, guitar lessons, acoustic guitar, electric guitar, guitar tuner, 911 tabs