Guitar Tabs for Godfather theme

Tabs for Song : godfather theme

E|--10----9--10-11----10-10/5--5-----
B|-----------------------------------
G|-----------------------------------
D|-----------------------------------
A|-----------------------------------
E|-----------------------------------

E|--10-9--10-13-10-9--12-11-9--10-9--5--6--5--7--8--3-----
B|--------------------------------------------------------
G|--------------------------------------------------------
D|--------------------------------------------------------
A|--------------------------------------------------------
E|--------------------------------------------------------

E|-----9--12-11-9--12-9--11-9--------------
B|--9--------------------------10-12-9-----
G|-----------------------------------------
D|-----------------------------------------
A|-----------------------------------------
E|-----------------------------------------

E|-----9--12-11-9--12-9--11-9--------------
B|--9--------------------------9--8--7-----
G|-----------------------------------------
D|-----------------------------------------
A|-----------------------------------------
E|-----------------------------------------

E|--------8--11--------8h9-----
B|--7--10-------7--10----------
G|-----------------------------
D|-----------------------------
A|-----------------------------
E|-----------------------------

E|--------------------------------8--9-----9--9--9--8--7-----
B|--------12-10-9--12-10-10-9--9-----------------------------
G|-----9-----------------------------------------------------
D|--11-------------------------------------------------------
A|-----------------------------------------------------------
E|-----------------------------------------------------------

E|--11-11-9-----------------------------------------
B|-----------10-9-----9--12-9--7-----7--10-8--9-----
G|--------------------------------------------------
D|--------------------------------------------------
A|--------------------------------------------------
E|--------------------------------------------------
tabs and chords, guitar tabs, music transcription, music technology, deep learning, music information retrieval, transcribe into tabs & chords, chordify, music renditions, songsterr, reverbnation, tabulature, bollywood chords, ultimate guitar, yousician, guitar lessons, acoustic guitar, electric guitar, guitar tuner, 911 tabs