Guitar Tabs for The Godfather

(/) Slide Up  (\) Slide Down  (h) Hammer On  (p) Pull Off  (b) Bend (r) Release (v) Vibrato (x) Muted

Tabs for Song : 
BPM : 200

E|-----0--3--2--0--3--0--2--0-----------------------
B|--0--------0-----------1-----0--2--0-----------0--
G|-----------0-----------2-----------0--------0-----
D|-----------------------------------2-----2--------
A|-----------------------0--------------------------
E|-----------0-----------------------0--0-----------

E|-----0--3--2--0--3--0--2--0-----------------------
B|--0--------0-----------0-----0--------------------
G|-----------0-----------0--------3--2--------1--2--
D|-----------------------------------2-----2--------
A|-----------------------------------0--0-----------
E|-----------0-----------3--------------------------

E|-----------2-----------2-----------0-----------0--
B|-----1--4--1-----------------1--4--0--------------
G|--2--------2--------------2--------0--------------
D|--------------------------------------------------
A|-----------0-----0--------------------------------
E|-----------------------------------0-----0--------

E|--------------------------------------------------
B|--------3--1--0--3--1--1--0--0--------------------
G|-----0-----2-----------2--------------------------
D|--2-----------------------------1--2--------1--2--
A|-----------2-----------2-----------2-----2--------
E|-----------------------------------0--0-----------

E|--0--0-----------------2-----0--------0-----------
B|--------4--3-----------3--------1--0--------------
G|-----------2-----------2-----------0--------------
D|-----------0-----------0-----------0--------------
A|--------------------------------------------------
E|-----------------------------------3--------------

E|--------------------------------------------------
B|--0--3--0--------------------1-----0--------------
G|-----------2--------------2-----3--2--------------
D|-----------3-----------------------1--------------
A|-----------------------0-----------2--------------
E|-----------1--------------------------------------

E|-----0--3--2--0--3--0--2--0-----------------------
B|--0--------0-----------1-----0--2--0--------------
G|-----------0-----------2-----------0--------------
D|-----------------------------------2--------------
A|-----------------------0--------------------------
E|-----------0-----------------------0--------------

Paste any tab in acousterr's tab maker and we'll play it !!!
Now supports capo and sound effects for vibrato/pull-off/hammer/bends/mutes etc !!! Checkout help section
tabs and chords, guitar tabs, music transcription, music technology, deep learning, music information retrieval, transcribe into tabs & chords, chordify, music renditions, songsterr, reverbnation, tabulature, bollywood chords, ultimate guitar, yousician, guitar lessons, acoustic guitar, electric guitar, guitar tuner, 911 tabs