Guitar Tabs for General Lee By Johnny Cash

Tabs for Song :  

Intro:
E|-----0-----0-----0-----0-----0-----0-----0-----0--
B|-----1-----1-----1-----1-----1-----1-----1-----1--
G|-----0-----0-----0-----0-----0-----0-----0-----0--
D|-----2-----2-----2-----2-----2-----2-----2-----2--
A|--3--3--------3--3--------3--3--------3--3--------
E|--------3-----------3-----------3-----------3-----

Verse 1:
I'm a Charger that charges through the night like an
E|-----0-----0-----0-----0-----0-----0-----0-----0--
B|-----1-----1-----1-----1-----1-----1-----1-----1--
G|-----0-----0-----0-----0-----2-----2-----2-----2--
D|-----2-----2-----2-----2-----2-----2-----2-----2--
A|--3--3--------3--3--------0--0--------0--0--------
E|--------3-----------3-----------0-----------0-----
Orange bolt of lightning passing everything in sight I'm the
E|-----1-----1-----1-----1-----1-----1-----1-----1--
B|-----1-----1-----1-----1-----1-----1-----1-----1--
G|-----2-----2-----2-----2-----2-----2-----2-----2--
D|-----3-----3-----3-----3-----3-----3-----3-----3--
A|-----3--3--3-----3--3--3-----3--3--3-----3--3--3--
E|--1--1--------1--1--------1--1--------1--1--------
Bst pal the Duke boys' ever had I'm
E|-----3-----3-----3-----3-----3-----3--
B|-----0-----0-----0-----0-----0-----0--
G|-----0-----0-----0-----0-----0-----0--
D|-----0-----0-----0-----0-----0-----0--
A|-----2--2--2-----2--2--2-----2--2--2--
E|--3--3--------3--3--------3--3--------
Thunder on the highway looking
E|-----0-----0-----0-----0-----1-----1-----1-----1--
B|-----1-----1-----1-----1-----1-----1-----1-----1--
G|-----2-----2-----2-----2-----2-----2-----2-----2--
D|-----2-----2-----2-----2-----3-----3-----3-----3--
A|--0--0--------0--0-----------3--3--3-----3--3--3--
E|--------0-----------0-----1--1--------1--1--------
Bad, bad, bad
E|--------------------
B|--------------------
G|--------------------
D|--0-----------------
A|--------0-----------
E|--------------3-----

Pre-Chorus:
I'm a knightlike the kind in shining armor with my
E|-----0-----0-----0-----0-----0-----0-----0-----0--
B|-----1-----1-----1-----1-----1-----1-----1-----1--
G|-----0-----0-----0-----0-----2-----2-----2-----2--
D|-----2-----2-----2-----2-----2-----2-----2-----2--
A|--3--3--------3--3--------0--0--------0--0--------
E|--------3-----------3-----------0-----------0-----
Polished body gleaming I'm a fighter and a charmer if
E|-----1-----1-----1-----1-----1-----1-----1-----1--
B|-----1-----1-----1-----1-----1-----1-----1-----1--
G|-----2-----2-----2-----2-----2-----2-----2-----2--
D|-----3-----3-----3-----3-----3-----3-----3-----3--
A|-----3--3--3-----3--3--3-----3--3--3-----3--3--3--
E|--1--1--------1--1--------1--1--------1--1--------
Trouble comes your way just ask for
E|-----3-----3-----3-----3-----3-----3--
B|-----0-----0-----0-----0-----0-----0--
G|-----0-----0-----0-----0-----0-----0--
D|-----0-----0-----0-----0-----0-----0--
A|-----2--2--2-----2--2--2-----2--2--2--
E|--3--3--------3--3--------3--3--------
Me                       my friends all know me as the
E|-----0-----0-----0-----0-----1-----1-----1-----1--
B|-----1-----1-----1-----1-----1-----1-----1-----1--
G|-----2-----2-----2-----2-----2-----2-----2-----2--
D|-----2-----2-----2-----2-----3-----3-----3-----3--
A|--0--0--------0--0-----------3--3--3-----3--3--3--
E|--------0-----------0-----1--1--------1--1--------
General Lee
E|-----3-----0-----0-----0-----0-----0-----0--
B|-----0-----1-----1-----1-----1-----1-----1--
G|-----0-----0-----0-----0-----0-----0-----0--
D|-----0-----2--2--2-----2--2--2-----2--2--2--
A|-----2--3--3--------3--3--------3--3--------
E|--3--3--------------------------------------

Chorus
I'm the General Lee a pistol pumpin' stell belted
E|-----1-----1-----1-----1-----1-----1-----1-----1--
B|-----1-----1-----1-----1-----1-----1-----1-----1--
G|-----2-----2-----2-----2-----2-----2-----2-----2--
D|-----3-----3-----3-----3-----3-----3-----3-----3--
A|-----3--3--3-----3--3--3-----3--3--3-----3--3--3--
E|--1--1--------1--1--------1--1--------1--1--------
cavalry I'll never let you down when you're
E|-----0-----0-----0-----0-----0-----0-----0-----0--
B|-----0-----0-----0-----0-----0-----0-----0-----0--
G|-----0-----0-----0-----0-----0-----0-----0-----0--
D|-----2-----2-----2-----2-----2-----2-----2-----2--
A|-----2--2--2-----2--2--2-----2--2--2-----2--2--2--
E|--0--0--------0--0--------0--0--------0--0--------
Riding with me             Buckle up and I'll
E|-----3-----3-----3-----3-----1-----1--
B|-----0-----0-----0-----0-----1-----1--
G|-----0-----0-----0-----0-----2-----2--
D|-----0-----0-----0-----0-----3-----3--
A|-----2--2--2-----2--2--2-----3--3--3--
E|--3--3--------3--3--------1--1--------
Show you what I mean
E|-----3-----3-----0-----0--
B|-----0-----0-----1-----1--
G|-----0-----0-----2-----2--
D|-----0-----0-----2-----2--
A|-----2--2--2--0--0--------
E|--3--3--------------0-----
(Instumental)
E|-----0-----0-----1-----1-----0-----0-----3-----3--
B|-----1-----1-----3-----3-----1-----1-----0-----0--
G|-----0-----0-----3-----3-----2-----2-----0-----0--
D|-----2-----2-----3-----3-----2-----2-----0-----0--
A|--3--3--------1--1--------0--0-----------2--2--2--
E|--------3-----------1-----------0-----3--3--------
Take a look back there sirens blowing red lights flashing
E|-----1-----1-----1-----1-----1-----1-----1-----1--
B|-----1-----1-----1-----1-----1-----1-----1-----1--
G|-----2-----2-----2-----2-----2-----2-----2-----2--
D|-----3-----3-----3-----3-----3-----3-----3-----3--
A|-----3--3--3-----3--3--3-----3--3--3-----3--3--3--
E|--1--1--------1--1--------1--1--------1--1--------
Everywhere we'll cross the field and we'll be runnin'
E|-----0-----0-----0-----0-----0-----0-----0-----0--
B|-----0-----0-----0-----0-----0-----0-----0-----0--
G|-----0-----0-----0-----0-----0-----0-----0-----0--
D|-----2-----2-----2-----2-----2-----2-----2-----2--
A|-----2--2--2-----2--2--2-----2--2--2-----2--2--2--
E|--0--0--------0--0--------0--0--------0--0--------
Free                        They'll east dust with
E|-----3-----3-----3-----3-----1-----1--
B|-----0-----0-----0-----0-----1-----1--
G|-----0-----0-----0-----0-----2-----2--
D|-----0-----0-----0-----0-----3-----3--
A|-----2--2--2-----2--2--2-----3--3--3--
E|--3--3--------3--3--------1--1--------
Compliments of me
E|-----3-----3-----0-----0--
B|-----0-----0-----1-----1--
G|-----0-----0-----2-----2--
D|-----0-----0-----2-----2--
A|-----2--2--2--0--0--------
E|--3--3--------------0-----
(Instumental)
E|-----1-----1-----3-----3--
B|-----1-----1-----0-----0--
G|-----2-----2-----0-----0--
D|-----3-----3-----0-----0--
A|-----3--3--3-----2--2--2--
E|--1--1--------3--3--------
The General Lee
E|-----0-----0-----0-----0--
B|-----1-----1-----1-----1--
G|-----2-----2-----2-----2--
D|-----2-----2-----2-----2--
A|--0--0--------0--0--------
E|--------0-----------0-----

Interlude:
I'm a hero And that's
E|-----0-----0-----0-----0-----0-----0-----0-----0--
B|-----1-----1-----1-----1-----1-----1-----1-----1--
G|-----0-----0-----0-----0-----0-----0-----0-----0--
D|-----2-----2-----2-----2-----2-----2-----2-----2--
A|--3--3--------3--3--------3--3--------3--3--------
E|--------3-----------3-----------3-----------3-----

Verse 2:
How I'll make you feel when you're
E|-----0-----0-----0-----0-----0-----0-----0-----0--
B|-----1-----1-----1-----1-----1-----1-----1-----1--
G|-----0-----0-----0-----0-----2-----2-----2-----2--
D|-----2-----2-----2-----2-----2-----2-----2-----2--
A|--3--3--------3--3--------0--0--------0--0--------
E|--------3-----------3-----------0-----------0-----
Riding shotgun with me and the law is at your heels I'm
E|-----1-----1-----1-----1-----1-----1-----1-----1--
B|-----1-----1-----1-----1-----1-----1-----1-----1--
G|-----2-----2-----2-----2-----2-----2-----2-----2--
D|-----3-----3-----3-----3-----3-----3-----3-----3--
A|-----3--3--3-----3--3--3-----3--3--3-----3--3--3--
E|--1--1--------1--1--------1--1--------1--1--------
Glory bound and when the chase is
E|-----3-----3-----3-----3-----3-----3--
B|-----0-----0-----0-----0-----0-----0--
G|-----0-----0-----0-----0-----0-----0--
D|-----0-----0-----0-----0-----0-----0--
A|-----2--2--2-----2--2--2-----2--2--2--
E|--3--3--------3--3--------3--3--------
Done I'll take off through themountains and have
E|-----0-----0-----0-----0-----1-----1-----1-----1--
B|-----1-----1-----1-----1-----1-----1-----1-----1--
G|-----2-----2-----2-----2-----2-----2-----2-----2--
D|-----2-----2-----2-----2-----3-----3-----3-----3--
A|--0--0--------0--0-----------3--3--3-----3--3--3--
E|--------0-----------0-----1--1--------1--1--------
Fun, fun, fun
E|--------------------
B|--------------------
G|--------------------
D|--0-----------------
A|--------0-----------
E|--------------3-----

Pre-Chorus:
I've got style tearing through the curves with my
E|-----0-----0-----0-----0-----0-----0-----0-----0--
B|-----1-----1-----1-----1-----1-----1-----1-----1--
G|-----0-----0-----0-----0-----2-----2-----2-----2--
D|-----2-----2-----2-----2-----2-----2-----2-----2--
A|--3--3--------3--3--------0--0--------0--0--------
E|--------3-----------3-----------0-----------0-----
Flag waving proudly to the people that I serve I'm
E|-----1-----1-----1-----1-----1-----1-----1-----1--
B|-----1-----1-----1-----1-----1-----1-----1-----1--
G|-----2-----2-----2-----2-----2-----2-----2-----2--
D|-----3-----3-----3-----3-----3-----3-----3-----3--
A|-----3--3--3-----3--3--3-----3--3--3-----3--3--3--
E|--1--1--------1--1--------1--1--------1--1--------
Number 1 and I'l always
E|-----3-----3-----3-----3-----3-----3--
B|-----0-----0-----0-----0-----0-----0--
G|-----0-----0-----0-----0-----0-----0--
D|-----0-----0-----0-----0-----0-----0--
A|-----2--2--2-----2--2--2-----2--2--2--
E|--3--3--------3--3--------3--3--------
Be the pride of the South they call the
E|-----0-----0-----0-----0-----1-----1-----1-----1--
B|-----1-----1-----1-----1-----1-----1-----1-----1--
G|-----2-----2-----2-----2-----2-----2-----2-----2--
D|-----2-----2-----2-----2-----3-----3-----3-----3--
A|--0--0--------0--0-----------3--3--3-----3--3--3--
E|--------0-----------0-----1--1--------1--1--------
General Lee
E|-----3-----0-----0-----0-----0-----0-----0--
B|-----0-----1-----1-----1-----1-----1-----1--
G|-----0-----0-----0-----0-----0-----0-----0--
D|-----0-----2--2--2-----2--2--2-----2--2--2--
A|-----2--3--3--------3--3--------3--3--------
E|--3--3--------------------------------------

Chorus
I'm the General Lee a pistol pumpin' stell belted
E|-----1-----1-----1-----1-----1-----1-----1-----1--
B|-----1-----1-----1-----1-----1-----1-----1-----1--
G|-----2-----2-----2-----2-----2-----2-----2-----2--
D|-----3-----3-----3-----3-----3-----3-----3-----3--
A|-----3--3--3-----3--3--3-----3--3--3-----3--3--3--
E|--1--1--------1--1--------1--1--------1--1--------
cavalry I'll never let you down when you're
E|-----0-----0-----0-----0-----0-----0-----0-----0--
B|-----0-----0-----0-----0-----0-----0-----0-----0--
G|-----0-----0-----0-----0-----0-----0-----0-----0--
D|-----2-----2-----2-----2-----2-----2-----2-----2--
A|-----2--2--2-----2--2--2-----2--2--2-----2--2--2--
E|--0--0--------0--0--------0--0--------0--0--------
Riding with me             Buckle up and I'll
E|-----3-----3-----3-----3-----1-----1--
B|-----0-----0-----0-----0-----1-----1--
G|-----0-----0-----0-----0-----2-----2--
D|-----0-----0-----0-----0-----3-----3--
A|-----2--2--2-----2--2--2-----3--3--3--
E|--3--3--------3--3--------1--1--------
Show you what I mean
E|-----3-----3-----0-----0--
B|-----0-----0-----1-----1--
G|-----0-----0-----2-----2--
D|-----0-----0-----2-----2--
A|-----2--2--2--0--0--------
E|--3--3--------------0-----
(Instumental)
E|-----0-----0-----1-----1-----0-----0-----3-----3--
B|-----1-----1-----3-----3-----1-----1-----0-----0--
G|-----0-----0-----3-----3-----2-----2-----0-----0--
D|-----2-----2-----3-----3-----2-----2-----0-----0--
A|--3--3--------1--1--------0--0-----------2--2--2--
E|--------3-----------1-----------0-----3--3--------
Take a look back there sirens blowing red lights flashing
E|-----1-----1-----1-----1-----1-----1-----1-----1--
B|-----1-----1-----1-----1-----1-----1-----1-----1--
G|-----2-----2-----2-----2-----2-----2-----2-----2--
D|-----3-----3-----3-----3-----3-----3-----3-----3--
A|-----3--3--3-----3--3--3-----3--3--3-----3--3--3--
E|--1--1--------1--1--------1--1--------1--1--------
Everywhere we'll cross the field and we'll be runnin'
E|-----0-----0-----0-----0-----0-----0-----0-----0--
B|-----0-----0-----0-----0-----0-----0-----0-----0--
G|-----0-----0-----0-----0-----0-----0-----0-----0--
D|-----2-----2-----2-----2-----2-----2-----2-----2--
A|-----2--2--2-----2--2--2-----2--2--2-----2--2--2--
E|--0--0--------0--0--------0--0--------0--0--------
Free                        They'll east dust with
E|-----3-----3-----3-----3-----1-----1--
B|-----0-----0-----0-----0-----1-----1--
G|-----0-----0-----0-----0-----2-----2--
D|-----0-----0-----0-----0-----3-----3--
A|-----2--2--2-----2--2--2-----3--3--3--
E|--3--3--------3--3--------1--1--------
Compliments of me
E|-----3-----3-----0-----0--
B|-----0-----0-----1-----1--
G|-----0-----0-----2-----2--
D|-----0-----0-----2-----2--
A|-----2--2--2--0--0--------
E|--3--3--------------0-----
(Instumental)                     The General Lee
E|-----1-----1-----3-----3-----0-----0-----0-----0--
B|-----1-----1-----0-----0-----1-----1-----1-----1--
G|-----2-----2-----0-----0-----2-----2-----2-----2--
D|-----3-----3-----0-----0-----2-----2-----2-----2--
A|-----3--3--3-----2--2--2--0--0--------0--0--------
E|--1--1--------3--3--------------0-----------0-----

(Instumental)                     The General Lee
E|-----1-----1-----3-----3-----0-----0-----0-----0--
B|-----1-----1-----0-----0-----1-----1-----1-----1--
G|-----2-----2-----0-----0-----2-----2-----2-----2--
D|-----3-----3-----0-----0-----2-----2-----2-----2--
A|-----3--3--3-----2--2--2--0--0--------0--0--------
E|--1--1--------3--3--------------0-----------0-----

(Instumental)                     General Lee
E|-----1-----1-----3-----3-----0-----0-----0-----0--------------0--0--
B|-----1-----1-----0-----0-----1-----1-----1-----1-----------1-----1--
G|-----2-----2-----0-----0-----0-----0-----0-----0--------0--------0--
D|-----3-----3-----0-----0-----2-----2-----2-----2-----2-----------2--
A|-----3--3--3-----2--2--2--3--3--------3--3--------3--------------3--
E|--1--1--------3--3--------------3-----------3-----------------------


tabs and chords, guitar tabs, music transcription, music technology, deep learning, music information retrieval, transcribe into tabs & chords, chordify, music renditions, songsterr, reverbnation, tabulature, bollywood chords, ultimate guitar, yousician, guitar lessons, acoustic guitar, electric guitar, guitar tuner, 911 tabs