Guitar Tabs for Folsom Prison Blues - Johnny Cash

(/) Slide Up  (\) Slide Down  (h) Hammer On  (p) Pull Off  (b) Bend (r) Release (v) Vibrato

Tabs for Song : 

Song lyrics here
E|-----------------------------------------------------------
B|-----------------------------------------------------------
G|-----------------------------------------------------------
D|-----------1--1-----------2-----2-----2-----2-----2-----2--
A|--2--2--2--------2-----------2-----------2-----------2-----
E|--------------------3--0-----------0-----------0-----------

Song lyrics here
E|-----------------------------------------------------------------------------------------------------------
B|--------------0--------------------------0--------------------0--------------------------------------------
G|--1--1--1--2-----------------1--1--1--2--------1--1--1--2--3-----------0--0--0---1b---1--------0-----------
D|-----------------2--2--------------------------------------------------------------------4--2-----2--4--2--
A|--------------------------------------------2--------------------2--2--------------------------------------
E|-----------------------------------------------------------------------------------------------------------

E|--------------------------------------------------------------------------------------------------
B|--------------------------------------------------------------------------------------------------
G|--0-----------0--------------------------------------1--1-----------------------------------------
D|-----4--2--------2-----------2-----2-----2-----2-----------4--4--1--4-----------------------------
A|--------------------2-----------2-----------2--------------------------2-----2--2--2---2\0--------
E|--------------------------0-----------0-----------0-----------------------------------------3--0--
solo
E|-----------------------------------------------------------------------------------------------------
B|--------0--3--0--3--0-----------0--3--0--3-----------0--3--0--3--0--------0--3--0--3-----0-----------
G|---0/1---------------------0/1------------------0/1------------------0/1--------------------1--------
D|-----------------------------------------------------------------------------------------------2-----
A|--------------------------------------------------------------------------------------------------0--
E|-----------------------------------------------------------------------------------------------------

E|--0--0-----0--0-----0--0-----0--0-----0--0-----0--0-----0--0-----0--0-----0--0-----0--0-----0--0-----0--0-----
B|--2--2-----2--2-----2--2-----2--2-----2--2-----2--2-----2--2-----2--2-----0--0-----0--0-----0--0-----0--0-----
G|--2--2-----2--2-----2--2-----2--2-----2--2-----2--2-----2--2-----2--2-----1--1-----1--1-----1--1-----1--1-----
D|--------------------------------------------------------------------------------------------------------------
A|-----------------0-----------------0-----------------0--------------------------------------------------------
E|-----------------------------------------------------------------------0-----------------0-----------------0--

E|--0--0-----0--0-----0--0-----0--0-----2--2-----2--2-----2--2-----2--2--------------------------------------------
B|--0--0-----0--0-----0--0-----0--0-----0--0-----0--0-----0--0-----0--0--------------------------------------------
G|--1--1-----1--1-----1--1-----1--1-----2--2-----2--2-----2--2-----2--2--------------------------------------------
D|--------------------------------------------------------------------------------------------2-----2-----2-----2--
A|-----------------------------------2-----------------2--------------------2--2--1--------------2-----------2-----
E|-----------------0-----------------------------------------------------------------3--0--------------0-----------

E|--------------------------0--
B|--------------------------0--
G|--------------------------1--
D|--------1--1--------------2--
A|--2--2--------2--------------
E|-----------------3--0--------

Now supports capo and sound effects for vibrato/pull-off/hammer/bends etc !!! Checkout help section
tabs and chords, guitar tabs, music contests, music covers, songsterr, reverbnation, renditions, tabulature, bollywood chords, ultimate guitar, yousician, guitar lessons, torrins, fender, gibson, acoustic guitar, electric guitar, youtube covers, gootar, guitar tuner, A-Z tabs, 911 tabs