Guitar Tabs for Garage

(/) Slide Up  (\) Slide Down  (h) Hammer On  (p) Pull Off  (b) Bend (r) Release (v) Vibrato (x) Muted

Tabs for Song : 
BPM : 200

rhythm is like 1 2 3 a4 
E|--------------------------------------------------------------------------
B|--------7-----------------7-----------------2-----------------------------
G|-----7-----7-----------7-----7-----------2-----2--------------6-----------
D|--5-----------5--------------------------------------------7-----7--------
A|--------------------7-----------7-----2-----------2-----5-----------5-----
E|--------------------------------------------------------------------------

E|--------------------------------------------------------------------------
B|--------7-----------------7-----------------2-----------------------------
G|-----7-----7-----------7-----7-----------2-----2--------------6-----------
D|--5-----------5--------------------------------------------4-----4--------
A|--------------------7-----------7-----2-----------2-----5-----------5-----
E|--------------------------------------------------------------------------

2 bars of each playing eight notes (1+2+3+4+ 2+2+3+4+)
E|--0--------0--
B|--10-------6--
G|--11-------7--
D|--11-------7--
A|--------------
E|--------------
I'm too stupid to explain this rhythm 
E|-----------0--------------0--------------0--------------0--
B|--------10-------------0--------------10-------------0-----
G|-----11-------------11-------------11-------------11-------
D|--11-------------11-------------11-------------11----------
A|-----------------------------------------------------------
E|-----------------------------------------------------------

E|-----------0--------------0--------------0--------------0--
B|--------6--------------0--------------6--------------0-----
G|-----7--------------7--------------7--------------7--------
D|--7--------------7--------------7--------------7-----------
A|-----------------------------------------------------------
E|-----------------------------------------------------------

timing here is way weird so I'm just gonna write the chord shapes
E|--0-----0-----0--
B|--0-----0-----0--
G|--11----7-----5--
D|--11----7-----5--
A|--9-----5-----3--
E|--10----6-----4--
same thing here, a different weird rhythm 
E|-----------
B|-----------
G|--3-----5--
D|--3-----5--
A|--1-----3--
E|--2-----4--

E|-----------
B|-----------
G|--3-----0--
D|--3-----4--
A|--1-----1--
E|--2-----0--
I'll just explain the outro when I see you
E|--0--0--0--0--0--0--0--0-----2--2--2--2-----5--5--5--5--
B|--------------------------------------------------------
G|--------------------------------------------------------
D|--------------------------------------------------------
A|--------------------------------------------------------
E|--------------------------------------------------------

E|--
B|--
G|--
D|--
A|--
E|--



Use manual mode to free up cursor. Paste any tab in acousterr tab maker and we'll play it !!!
tabs and chords, guitar tabs, music transcription, music technology, deep learning, music information retrieval, transcribe into tabs & chords, chordify, music renditions, songsterr, reverbnation, tabulature, bollywood chords, ultimate guitar, yousician, guitar lessons, acoustic guitar, electric guitar, guitar tuner, 911 tabs