Guitar Tabs for Game Themes - Song Of Storms (the Legend Of Zelda)

Game Themes - Song Of Storms (The Legend Of Zelda)

Intro
E|--------------------------------------------
B|-----0--0--------2--------3--3--------2-----
G|-----0--0--------2--------2--2--------2-----
D|-----2--2-----0-----------0--0-----0--------
A|--------------------------------------------
E|--0--------2-----------3--------2--------2--

E|--------------------------------------------
B|-----0--0--------2--------3--3--------2-----
G|-----0--0--------2--------2--2--------2-----
D|-----2--2-----0-----------0--0-----0--------
A|--------------------------------------------
E|--0--------2-----------3--------2--------2--

Part 2
E|--------0-----------0--------2-----3--2--3--2-----------
B|-----------------------------------------------3--0-----
G|-----0-----------0--------------0-----------------------
D|--2-----------2-----------------------------------------
A|--------------------------------------------------------
E|--0-----------2--------2-----3--------------2-----------

E|-----------------------------------------------
B|--0-----------0-----------0--------------------
G|--------0--2--------0-----------0--2-----0-----
D|-----2-----------0-----------2--------4-----4--
A|--3-----------------------3-----------2--------
E|--------------3--------------------------------

Part 3
E|--------0-----------0-----2-----3--2--3--2--------
B|--------------------------------------------3--0--
G|-----0-----------0-----------0--------------------
D|--2-----------2-----------------------------------
A|--------------------------------------------------
E|--0--------0--2-----------3--------------2--------

E|-----------------------
B|--0-----------0--------
G|--------0--2--------0--
D|-----2-----------4-----
A|--3-----------2--------
E|-----------------------

Last Part
E|--------------------------------------------
B|-----0--0--------2--------3--3--------2-----
G|-----0--0--------2--------2--2--------2-----
D|-----2--2-----0-----------0--0-----0--------
A|--------------------------------------------
E|--0--------2-----------3--------2--------2--
tabs and chords, guitar tabs, music transcription, music technology, deep learning, music information retrieval, transcribe into tabs & chords, chordify, music renditions, songsterr, reverbnation, tabulature, bollywood chords, ultimate guitar, yousician, guitar lessons, acoustic guitar, electric guitar, guitar tuner, 911 tabs