Guitar Tabs for Fur Elise Beethoven

(/) Slide Up  (\) Slide Down  (h) Hammer On  (p) Pull Off  (b) Bend (r) Release (v) Vibrato (x) Muted

Tabs for Song : Fur Elise Beethoven

E|--0-----0-----0-----------------------------------------------------------0-----
B|-----4-----4-----0--3--1--------------------0--------------0--1--------------4--
G|--------------------------2-----2--------2--------1-----1-----------2-----------
D|-----------------------------2--------2--------2-----2-----------2-----2--------
A|--------------------------0--------3--------------------------0-----------------
E|--------------------------------------------0-----------------------------------

E|--0-----0--------------------------------------------------------0-----0-----0-----------
B|-----4-----0--3--1--------------------0-----------1--0--------------4-----4-----0--3--1--
G|--------------------2-----2--------2--------1-----------2-----2--------------------------
D|-----------------------2--------2--------2-----2-----------2-----------------------------
A|--------------------0--------3--------------------------0--------------------------------
E|--------------------------------------0--------------------------------------------------

E|--------------------------------------------------0-----0-----0-----------------------------
B|--------------------0--------------0--1--------------4-----4-----0--3--1--------------------
G|--2-----2--------2--------1-----1-----------2-----------------------------2-----2--------2--
D|-----2--------2--------2-----2-----------2-----2-----------------------------2--------2-----
A|--0--------3--------------------------0-----------------------------------0--------3--------
E|--------------------0-----------------------------------------------------------------------

E|--------------------------------------0-----------1--0--------------0-----------------------
B|--0-----------1--0-----------0--1--3--------1-----------3-----0--------3--1-----------3--1--
G|--------1-----------2-----2--------------------0-----------0--------------------2-----------
D|-----2-----0-----------2-----------------2-----------------------3-----------2-----2--------
A|--------------------0-----------------3-----------------------------------0-----------------
E|--0-----------------------------------------------------3-----------------------------------

E|--------0-----0-----0-----12----0-----0-----0-----0-----0-----0-----------------------------
B|--0--------------------------4-----4-----4-----4-----4-----4-----0--3--1--------------------
G|-----------------------9--------------------------------------------------2-----2--------2--
D|-----2-----2-----2-----------------------------------------------------------2--------2-----
A|--------------------------------------------------------------------------0--------3--------
E|--0-----------------------------------------------------------------------------------------

E|--------------------------------0-----0-----0--------------------------------------------------
B|--0--------------0--1--------------4-----4-----0--3--1--------------------0-----------1--0-----
G|--------1-----1-----------2-----------------------------2-----2--------2--------1-----------2--
D|-----2-----2-----------2-----2-----------------------------2--------2--------2-----0-----------
A|--------------------0-----------------------------------0--------3--------------------------0--
E|--0-----------------------------------------------------------------------0--------------------
tabs and chords, guitar tabs, music contests, music covers, songsterr, reverbnation, renditions, tabulature, bollywood chords, ultimate guitar, yousician, guitar lessons, torrins, fender, gibson, acoustic guitar, electric guitar, youtube covers, gootar, guitar tuner, A-Z tabs, 911 tabs