Ukulele Tabs for Fur Elise

(/) Slide Up  (\) Slide Down  (h) Hammer On  (p) Pull Off  (b) Bend (r) Release (v) Vibrato (x) Muted

Tabs for Song : 


A|--7--6--7--6--7--2--5--3--0--------0--2--------2--3-----
E|--------------------------------0--------0--4--------0--
C|-----------------------------0--------------------------
G|--------------------------------------------------------
 Yo mama is so old that she farts dust 
A|--7--6--7--6--7--2--5--3--0--------0--2-----3--2--0--2--3--5--7-----8--7--5-----7--5--3-----5--3--2--
E|--------------------------------0--------0-----------------------------------------------0-----------
C|-----------------------------0-----------------------------------------------5-----------------------
G|-----------------------------------------------------------------0-----------------------------------

A|--7--6--7--6--7--2--5--3--0--------0--2--------2--3-----
E|--------------------------------0--------0--4--------0--
C|-----------------------------0--------------------------
G|--------------------------------------------------------

A|--7--6--7--6--7--2--5--3--0--------0--2-----3--2--0--
E|--------------------------------0--------0-----------
C|-----------------------------0-----------------------
G|-----------------------------------------------------



Paste any tab in acousterr's tab maker and we'll play it !!!
Now supports capo and sound effects for vibrato/pull-off/hammer/bends/mutes etc !!! Checkout help section

Piano Tabs for Fur Elise





2|--------------------------------------------------------
3|--------------------------------------------------------
4|-----------------b--------a--c--e--a--b--e--G#-b-----e--
5|--e--D#-e--D#-e-----d--c--------------------------c-----

2|-----------------------------------------------------------------------------------------------------
3|-----------------------------------------------------------------------------------------------------
4|-----------------b--------a--c--e--a--b--e-----b--a--b-----------g-----------f-----------e--------b--
5|--e--D#-e--D#-e-----d--c--------------------c-----------c--d--e-----f--e--d-----e--d--c-----d--c-----

2|--------------------------------------------------------
3|--------------------------------------------------------
4|-----------------b--------a--c--e--a--b--e--G#-b-----e--
5|--e--D#-e--D#-e-----d--c--------------------------c-----

2|-----------------------------------------------------
3|-----------------------------------------------------
4|-----------------b--------a--c--e--a--b--e-----b--a--
5|--e--D#-e--D#-e-----d--c--------------------c--------

2|--
3|--
4|--
5|--

Bass Tabs for Fur Elise





G|--7--6--7--6--7--2--5--3--0--------0--2--------2--3-----
D|--------------------------------0--------0--4--------0--
A|-----------------------------0--------------------------
E|--------------------------------------------------------

G|--7--6--7--6--7--2--5--3--0--------0--2-----3--2--0--2--3--5--7-----8--7--5-----7--5--3-----5--3--2--
D|--------------------------------0--------0-----------------------------------------------0-----------
A|-----------------------------0-----------------------------------------------5-----------------------
E|-----------------------------------------------------------------0-----------------------------------

G|--7--6--7--6--7--2--5--3--0--------0--2--------2--3-----
D|--------------------------------0--------0--4--------0--
A|-----------------------------0--------------------------
E|--------------------------------------------------------

G|--7--6--7--6--7--2--5--3--0--------0--2-----3--2--0--
D|--------------------------------0--------0-----------
A|-----------------------------0-----------------------
E|-----------------------------------------------------

G|--
D|--
A|--
E|--

G|--
D|--
A|--
E|--

G|--
D|--
A|--
E|--

tabs and chords, guitar tabs, music transcription, music technology, deep learning, music information retrieval, transcribe into tabs & chords, chordify, music renditions, songsterr, reverbnation, tabulature, bollywood chords, ultimate guitar, yousician, guitar lessons, acoustic guitar, electric guitar, guitar tuner, 911 tabs