Guitar Tabs for Fur Elise

Fur Elise - guitar & ukulele.

E|--7--6--7--6--7--2--5--3--0--------------0--2--------------2--3-----
B|--------------------------------------0--------------0--4-----------
G|-----------------------------------0--------------------------------
D|--------------------------------------------------------------------
A|--------------------------------------------------------------------
E|--------------------------------------------------------------------

E|----7-6--7--6--7--2--5--3--0-------------0--2-----------3--2--0---
B|--0-----------------------------------0--------------0--------------
G|-----------------------------------0--------------------------------
D|--------------------------------------------------------------------
A|--------------------------------------------------------------------
E|--------------------------------------------------------------------


tabs and chords, guitar tabs, music transcription, music technology, deep learning, music information retrieval, transcribe into tabs & chords, chordify, music renditions, songsterr, reverbnation, tabulature, bollywood chords, ultimate guitar, yousician, guitar lessons, acoustic guitar, electric guitar, guitar tuner, 911 tabs