Guitar Tabs for Friends (lead Guitar)

(/) Slide Up  (\) Slide Down  (h) Hammer On  (p) Pull Off  (b) Bend (r) Release (v) Vibrato (x) Muted
 
Capo On 4th

Intro: Overdrive Guitar 
E|--------------------------------------------------------------------------
B|--7------7/9-----9------9/12----7------7/9-----9------9/12----7------7/9--
G|--6------6/8-----8------8/11----6------6/8-----8------8/11----6------6/8--
D|--------------------------------------------------------------------------
A|--------------------------------------------------------------------------
E|--------------------------------------------------------------------------

Verse 1: Clean Guitar (Switches To Overdrive In Lead Up To Chorus)
There was a time when I called you my friend,
Once upon a time I was so naive I thought there would never be an end,
Well here we say we've come so far but we're so far apart,
But I guess that's the price you pay when you try to have a heart,
E|--------4-----------4-----------4-----------4-----------4-----------4-----------4-----------4-----
B|-----9-----------12----------9-----------12----------9-----------12----------9-----------12-------
G|--8-----------11----------8-----------11----------8-----------11----------8-----------11----------
D|--------------------------------------------------------------------------------------------------
A|--------------------------------------------------------------------------------------------------
E|--------------------------------------------------------------------------------------------------
For you,
E|--------------------------
B|--12-12-12-12-12-12-12-12-
G|--11-11-11-11-11-11-11-11-
D|--------------------------
A|--------------------------
E|--------------------------

Chorus: Distorted Overdrive Guitar
But you never even cared,
So tell me why should I,
E|--------------------------------------------------------------------------------------------------
B|--------------------------------------------------------------------------------------------------
G|--9-----9--9--9--9--9--9--9--9--9--9--9--9--9--9--------------------------11-11-11-11-11-11-11-11-
D|--9-----9--9--9--9--9--9--9--9--9--9--9--9--9--9--9-----9--9--9--9--9--9--11-11-11-11-11-11-11-11-
A|--7-----7--7--7--7--7--7--7--7--7--7--7--7--7--7--9-----9--9--9--9--9--9--9--9--9--9--9--9--9--9--
E|--------------------------------------------------7-----7--7--7--7--7--7--------------------------
You never gave a damn about yourself,
No matter how much I did,
E|--------------------------------------------------------------------------------------------------
B|--------------------------------------------------------------------------------------------------
G|--9-----9--9--9--9--9--9--9--9--9--9--9--9--9--9--------------------------11-11-11-11-11-11-11-11-
D|--9-----9--9--9--9--9--9--9--9--9--9--9--9--9--9--9-----9--9--9--9--9--9--11-11-11-11-11-11-11-11-
A|--7-----7--7--7--7--7--7--7--7--7--7--7--7--7--7--9-----9--9--9--9--9--9--9--9--9--9--9--9--9--9--
E|--------------------------------------------------7-----7--7--7--7--7--7--------------------------
After all this time,
It would seem we're at the end of the line,
E|--------------------------------------------------------------------------------------------------
B|--------------------------------------------------------------------------------------------------
G|--9-----9--9--9--9--9--9--9--9--9--9--9--9--9--9--------------------------11-11-11-11-11-11-11-11-
D|--9-----9--9--9--9--9--9--9--9--9--9--9--9--9--9--9-----9--9--9--9--9--9--11-11-11-11-11-11-11-11-
A|--7-----7--7--7--7--7--7--7--7--7--7--7--7--7--7--9-----9--9--9--9--9--9--9--9--9--9--9--9--9--9--
E|--------------------------------------------------7-----7--7--7--7--7--7--------------------------
I've tried to be a man but man,
You're still just a kid,
E|-----------------------------------------------------------------------------
B|-----------------------------------------------------------------------------
G|--9-----9--9--9--9--9--9--9--9--9--9--9--9--9--9--6-----6--6--6--6--6--6--6--
D|--9-----9--9--9--9--9--9--9--9--9--9--9--9--9--9--6-----6--6--6--6--6--6--6--
A|--7-----7--7--7--7--7--7--7--7--7--7--7--7--7--7--4-----4--4--4--4--4--4--4--
E|-----------------------------------------------------------------------------

Transition: Overdrive Guitar
E|--------------------------------------------------------------------------
B|--7------7/9-----9------9/12----7------7/9-----9------9/12----7------7/9--
G|--6------6/8-----8------8/11----6------6/8-----8------8/11----6------6/8--
D|--------------------------------------------------------------------------
A|--------------------------------------------------------------------------
E|--------------------------------------------------------------------------

Verse 2: Overdrive Guitar
There was a time whenI trusted you,
Once upon a time when I thought you trusted me to,
But I'd say we're well past that now,
And all I can do anymore is sit here and wonder how,
E|--------4-----------4-----------4-----------4-----------4-----------4-----------4-----------4-----
B|-----9-----------12----------9-----------12----------9-----------12----------9-----------12-------
G|--8-----------11----------8-----------11----------8-----------11----------8-----------11----------
D|--------------------------------------------------------------------------------------------------
A|--------------------------------------------------------------------------------------------------
E|--------------------------------------------------------------------------------------------------
You could be so cold,
E|--------------------------
B|--12-12-12-12-12-12-12-12-
G|--11-11-11-11-11-11-11-11-
D|--------------------------
A|--------------------------
E|--------------------------

Chorus: Distorted Overdrive Guitar
But you never even cared,
So tell me why should I,
E|--------------------------------------------------------------------------------------------------
B|--------------------------------------------------------------------------------------------------
G|--9-----9--9--9--9--9--9--9--9--9--9--9--9--9--9--------------------------11-11-11-11-11-11-11-11-
D|--9-----9--9--9--9--9--9--9--9--9--9--9--9--9--9--9-----9--9--9--9--9--9--11-11-11-11-11-11-11-11-
A|--7-----7--7--7--7--7--7--7--7--7--7--7--7--7--7--9-----9--9--9--9--9--9--9--9--9--9--9--9--9--9--
E|--------------------------------------------------7-----7--7--7--7--7--7--------------------------
You never gave a damn about yourself,
No matter how much I did,
E|--------------------------------------------------------------------------------------------------
B|--------------------------------------------------------------------------------------------------
G|--9-----9--9--9--9--9--9--9--9--9--9--9--9--9--9--------------------------11-11-11-11-11-11-11-11-
D|--9-----9--9--9--9--9--9--9--9--9--9--9--9--9--9--9-----9--9--9--9--9--9--11-11-11-11-11-11-11-11-
A|--7-----7--7--7--7--7--7--7--7--7--7--7--7--7--7--9-----9--9--9--9--9--9--9--9--9--9--9--9--9--9--
E|--------------------------------------------------7-----7--7--7--7--7--7--------------------------
After all this time,
It would seem we're at the end of the line,
E|--------------------------------------------------------------------------------------------------
B|--------------------------------------------------------------------------------------------------
G|--9-----9--9--9--9--9--9--9--9--9--9--9--9--9--9--------------------------11-11-11-11-11-11-11-11-
D|--9-----9--9--9--9--9--9--9--9--9--9--9--9--9--9--9-----9--9--9--9--9--9--11-11-11-11-11-11-11-11-
A|--7-----7--7--7--7--7--7--7--7--7--7--7--7--7--7--9-----9--9--9--9--9--9--9--9--9--9--9--9--9--9--
E|--------------------------------------------------7-----7--7--7--7--7--7--------------------------
I've tried to be a man but man,
You're still just a kid,
E|-----------------------------------------------------------------------------
B|-----------------------------------------------------------------------------
G|--9-----9--9--9--9--9--9--9--9--9--9--9--9--9--9--6-----6--6--6--6--6--6--6--
D|--9-----9--9--9--9--9--9--9--9--9--9--9--9--9--9--6-----6--6--6--6--6--6--6--
A|--7-----7--7--7--7--7--7--7--7--7--7--7--7--7--7--4-----4--4--4--4--4--4--4--
E|-----------------------------------------------------------------------------

Transition: Overdrive Guitar
Just a kid,
E|--------------------------------------------------------------------------
B|--7------7/9-----9------9/12----7------7/9-----9------9/12----7------7/9--
G|--6------6/8-----8------8/11----6------6/8-----8------8/11----6------6/8--
D|--------------------------------------------------------------------------
A|--------------------------------------------------------------------------
E|--------------------------------------------------------------------------

Bridge: Lead Guitar Does Not Play Here

Outro: Distorted Overdrive Guitar (Let Last Note Ring Out)
E|--------------------------------------------------------------------------------------
B|--7------7/9-----9------9/12----7------7/9-----9------9/12----7------7/9--------------
G|--6------6/8-----8------8/11----6------6/8-----8------8/11----6------6/8-----8--8--9--
D|-----------------------------------------------------------------------------8--8--9--
A|-----------------------------------------------------------------------------6--6--7--
E|--------------------------------------------------------------------------------------


Use manual mode to free up cursor. Paste any tab in acousterr tab maker and we'll play it !!!
tabs and chords, guitar tabs, music transcription, music technology, deep learning, music information retrieval, transcribe into tabs & chords, chordify, music renditions, songsterr, reverbnation, tabulature, bollywood chords, ultimate guitar, yousician, guitar lessons, acoustic guitar, electric guitar, guitar tuner, 911 tabs