Guitar Tabs for Freight Train Blues Intro

(/) Slide Up  (\) Slide Down  (h) Hammer On  (p) Pull Off  (b) Bend (r) Release (v) Vibrato (x) Muted

Tabs for Song : 

Song lyrics here

E|--------------3---3/7--7--------------------6--7--5---6b-6\3--3--
B|--------3--5--------------8-----8--7--6--5-----------------------
G|--4--5-----------------------------------------------------------
D|-----------------------------------------------------------------
A|-----------------------------------------------------------------
E|-----------------------------------------------------------------




another riff
E|--------------6--7--5--6--6--3--
B|--------5--8--------------------
G|--5--7--------------------------
D|--------------------------------
A|--------------------------------
E|--------------------------------

Extra yodel for G
E|--------------7--------------------5--------------------3--3--
B|--------------------------------------------------------------
G|--4--5--6--7-----7--7--6--7--6--5-----5--5--4--5--2--4--------
D|--------------------------------------------------------------
A|--------------------------------------------------------------
E|--------------------------------------------------------------

Maybe a riff to end it with
E|--------------------------
B|--------------------------
G|--------------------------
D|--------------------------
A|--7--6--5-----------------
E|-----------7--6--5v-5v-3--


Now supports capo and sound effects for vibrato/pull-off/hammer/bends/mutes etc !!! Checkout help section
tabs and chords, guitar tabs, music transcription, music technology, deep learning, music information retrieval, transcribe into tabs & chords, chordify, music renditions, songsterr, reverbnation, tabulature, bollywood chords, ultimate guitar, yousician, guitar lessons, acoustic guitar, electric guitar, guitar tuner, 911 tabs