Guitar Tabs for Freight Train Melody

(/) Slide Up  (\) Slide Down  (h) Hammer On  (p) Pull Off  (b) Bend (r) Release (v) Vibrato (x) Muted

Tabs for Song : Freight Train Melody

E|--3--0-----------3--1--3--1-----------3--0--
B|--------3--1--0--------------3--0--1--------
G|--------------------------------------------
D|--------------------------------------------
A|--3--------------------------------3--------
E|--------------3--------3--------------------

E|--0--1--0--------------------0--------------
B|-----------3--1--3--1--1--3-----1-----3--1--
G|-----------------------------------0--------
D|--------------------------------------------
A|-----------------------------3-----------3--
E|--0-----------1--------------------3--------
tabs and chords, guitar tabs, music contests, music covers, songsterr, reverbnation, renditions, tabulature, bollywood chords, ultimate guitar, yousician, guitar lessons, torrins, fender, gibson, acoustic guitar, electric guitar, youtube covers, gootar, guitar tuner, A-Z tabs, 911 tabs