Guitar Tabs for Forever Young (alphaville) Fugii

(/) Slide Up  (\) Slide Down  (h) Hammer On  (p) Pull Off  (b) Bend (r) Release (v) Vibrato (x) Muted

Tabs for Song : Forever Young - Alphaville - Fugii   No Capo
BPM : 200

             C                 G                   Am                   F                    G 
E|-----------3--3--3--5-|----------3p0-----0-|---------0--0--3--1-|---1--0--0----------|------------------0-|
B|----------------------|---------------3----|--------------------|------------1--3--3-|---------3--3--3----|
G|--------0-------------|------0-------------|------2-------------|--------------------|------0-------------|
D|-----2----------------|---0----------------|---2----------------|--------------------|---0----------------|
A|--3-------------------|--------------------|0-------------------|--------------------|--------------------|
E|----------------------|3-------------------|--------------------|1-------------------|3-------------------|
         Am                    F                    Asus4    G          F             G            
E|----------------------|-----------------------|--------|-----------|-----------|------------0-------|
B|-----------3--1-----1-|---------1--1-----1----|3-------|---------0-|1--1--1--3-|---------3-----3--1-|
G|--------2--------2----|------2--------2-----2-|------2-|------0----|-----------|------0-------------|
D|-----2----------------|---3-------------------|--------|---0-------|-----------|---0----------------|
A|--0-------------------|-----------------------|---0----|-----------|-----------|--------------------|
E|----------------------|1----------------------|--------|3----------|-----------|3-------------------|
          C                        G                    Am7                 F                       G
E|-----------3---3/5--3--3-|---------------0--1--0-|------3--1--0----|-----------------------|------------------0--1-|
B|-------------------------|------------3----------|---------------1-|------------1----------|------3--3--3--3-------|
G|--------0----------------|------0----------------|-----------------|------2--------2-----2-|-----------------------|
D|-----2-------------------|---0-----0-------------|---2-------------|---3-----3--------3----|---0-------------------|
A|--3----------------------|-----------------------|0----------------|-----------------------|-----------------------|
E|-------------------------|3----------------------|-----------------|1----------------------|3----------------------|
        Am             F                G              C           Enjoy:)
E|--0-------------|--------------|-----------------|-----------|
B|--------3--1----|------1--1----|------3--5--3--1-|---------1-|
G|--------------2-|------------2-|-----------------|------0----|
D|-----2----------|--------------|---0-------------|---2-------|
A|--0-------------|---3----------|-----------------|3----------|
E|----------------|1-------------|3----------------|-----------|





tabs and chords, guitar tabs, music transcription, music technology, deep learning, music information retrieval, transcribe into tabs & chords, chordify, music renditions, songsterr, reverbnation, tabulature, bollywood chords, ultimate guitar, yousician, guitar lessons, acoustic guitar, electric guitar, guitar tuner, 911 tabs