Guitar Tabs for Forever Marked

(/) Slide Up  (\) Slide Down  (h) Hammer On  (p) Pull Off  (b) Bend (r) Release (v) Vibrato (x) Muted

Tabs for Song : Forever marked


Intro x2  

F|--------------8--------------------8--------------------------------------------------
C|-----------6-----6--------------6-----6--------------6--------------6--9--------------
G|--------9-----------9--------9-----------9--------9-----7--------9--------7-----------
D|-----7-----------------7--7--------------------7--------------7-----------------------
A|--------------------------------------------5--------------5--------------------------
F|--------------------------------------------------------------------------------------



 [Chords]
eb|--------------------------------------------------------------
Bb|--------------------------------------------------------------
Gb|--------------------------------------------------------------
Db|--------------------------------------------------------------
Ab|--------------------------------------------------------------
Ab|-00--0--0--0-----0--0--0--0--8--8--8--8--8--5--5--5--7--7-----

    lead guitar play straight after intro  (repeated throughout Tapping )
eb|-----------------------------------------------------------------------------------------------------
Bb|-(17-10-6)x4--13(10--6)-4x12-10-6--10-13-10-6--10--1(5--0--4)x--(13-10-6)x4--12-10-6--0--17-10-6-----
Gb|-----------------------------------------------------------------------------------------------------
Db|-----------------------------------------------------------------------------------------------------
Ab|-----------------------------------------------------------------------------------------------------
Ab|-----------------------------------------------------------------------------------------------------

  [tapping fill 1]
eb|--------------
Bb|--------------
Gb|--------------
Db|--------------  x-8 
Ab|--12-0--8-----
Ab|--------------



eb|-----------------------------------------------------1--3--20-19----------------
Bb|-----------------6--6--------------------------------1--7--------21s17 17s14-14-
Gb|--------------------------------------------------------------------------------
Db|-----------10-------------------------------------------------------------------
Ab|------0h-8h---------8--7--8hp-7p------------------------------------------------
Ab|-00--------0--0--0--------------8--7------0 0--0--------------------------------

eb|-----------------------------------------------------1--3--8-----------
Bb|-----------------------------------------------------1--7--12----------
Gb|-----------------6--6-----------------------------------------9--------
Db|-----------10-------------------------------------------------10-------
Ab|------0h-8h---------8--7--8hp-7p---------------------------------0-----
Ab|-00--------0--0--0--------------8--7------0 0--0-----------------------




eb|--------------------------------------8-----
Bb|--------------------------------6--6--6-----
Gb|--------------------------------9--9--------
Db|-----------------------------------7--7-----
Ab|--------------------------------------------
Ab|--0()-3x0()4x(0)x3---0(4)x-0(2)x------------

eb|-----------------------------------------------0--------
Bb|--------------------------------------------------------
Gb|-----------------------------------------------5--5-----
Db|-----------------------------------------------9--9-----
Ab|--------------------------------------------7-----7-----
Ab|-00--0--0--0--0--0--0--0--0--0-----0--0--0--------------



eb|--------------------------------------------------------------------
Bb|--------------------------------------------------------------------
Gb|--------------------------------------13-------------------17-------
Db|--15-14-15-14-1--5--4--15-14-1--5--4--1--5--1--5--4--15-14----14----
Ab|-0------0-----0--------0-----0-----0--------0-----0--------0--------
Ab|--------------------------------------------------------------------




eb|-----------------------------------------------------------------
Bb|-----------------------------------------------------------------
Gb|-----------------------------------------------------------------
Db|-----------------------------------------------------------------
Ab|-----------------------------------------------------------------
Ab|-24--3--3--3--7--4--3--3--3--3--4--3--3--3--7--4--3--1--1--4-----



(tapping fill 2)
eb|--------------------------------------------------------------------------------------
Bb|--------------------------------------------------------------------------------------
Gb|--------------------------------------------------------------------------------------
Db|--------------------------------------------------------------------------------------
Ab|-(12-0---8)-8x-1(5--7--8)x4--14(0--7--4)x--(12-0---8)-8x-1(5--7--8)x4--19(0--7--4)x---
Ab|--------------------------------------------------------------------------------------



If you're havingtroubleplayingthis song, Currents have an instrumental to this song which shoukd make things easier for you. 


tabs and chords, guitar tabs, music transcription, music technology, deep learning, music information retrieval, transcribe into tabs & chords, chordify, music renditions, songsterr, reverbnation, tabulature, bollywood chords, ultimate guitar, yousician, guitar lessons, acoustic guitar, electric guitar, guitar tuner, 911 tabs