Guitar Tabs for For Who You Are - Hillsong Adlib

(/) Slide Up  (\) Slide Down  (h) Hammer On  (p) Pull Off  (b) Bend (r) Release (v) Vibrato (x) Muted

Tabs for Song : 

Song lyrics here


Song lyrics here
E|--------------------------------------------------
B|--------------------------------------------------
G|--9--9--9-----8--8--8-----6--6--6-----4--4--4-----
D|--------------------------------------------------
A|--7--7--7-----6--6--6-----4--4--4-----2--2--2-----
E|--------------------------------------------------

E|--------------------------------------------------
B|--------------------------------------------------
G|--9--9--9-----11-8--8-----6--6--6-----8--6--4-----
D|--------------------------------------------------
A|--7--7--7-----9--6--6-----4--4--4-----6--4--2-----
E|--------------------------------------------------

E|-----------------------------------------
B|-----------------------------------------
G|-----------------------------------------
D|--9--9--8-----8--------4-----4-----9-----
A|-----------------------------------------
E|--7--7--6-----6--------2-----2-----7-----

E|--------------------14-------14----------------------------
B|-----12-14-14b12-------12-------11----12-------------------
G|--11----------------------------------------11----9-----8v-
D|-----------------------------------------------------------
A|-----------------------------------------------------------
E|-----------------------------------------------------------




Paste any tab in acousterr's tab maker and we'll play it !!!
Now supports capo and sound effects for vibrato/pull-off/hammer/bends/mutes etc !!! Checkout help section
tabs and chords, guitar tabs, music transcription, music technology, deep learning, music information retrieval, transcribe into tabs & chords, chordify, music renditions, songsterr, reverbnation, tabulature, bollywood chords, ultimate guitar, yousician, guitar lessons, acoustic guitar, electric guitar, guitar tuner, 911 tabs