The Woman We Are Looking For - Who Dies In Siberian Slush - Guitar Tabs

Tuning: DADGBE / Drop D

F Major
BPM : 52

E|-----10----------------
B|-----------------------
G|-----------------------
D|-----------------------
A|-----------------------
D|-----------------------

E|--------------------------------------------------------------------------------------------------
B|-----10-13----11----10----11----10-------------10-11-10-11-10h11p10-------------------------------
G|-----------------------------------------------------------------------12-12-10-10-9--10----------
D|--------------------------------------------------------------------------------------------------
A|--------------------------------------------------------------------------------------------------
D|--------------------------------------------------------------------------------------------------

E|--------------------------------------------------------------------------------------------------
B|--------------------------------------------------------------------------11-------10-10----------
G|-----10-10-9--9-----------10----9-----10----------------9--10-12----9-----------------------------
D|--------------------------------------------------------------------------------------------------
A|--------------------------------------------------------------------------------------------------
D|--------------------------------------------------------------------------------------------------

E|-----10----10-------9-----------------------------------------------------------------------------
B|--------------------------11----11----10----------10----11-10h11p10----10-------------------------
G|-----------------------------------------------------------------------------12-12-10-10-9--10----
D|--------------------------------------------------------------------------------------------------
A|--------------------------------------------------------------------------------------------------
D|--------------------------------------------------------------------------------------------------

E|-----17b18r---15-------12-------12b13r---10-------10-12-12----12----12b13r---10-9--10-------------
B|--------------------------------------------------------------------------------------------------
G|--------------------------------------------------------------------------------------------------
D|--------------------------------------------------------------------------------------------------
A|--------------------------------------------------------------------------------------------------
D|--------------------------------------------------------------------------------------------------

x4
E|-----------------------------------------------------------------------------------------
B|-----------------------------------------------------------------------------------------
G|-----------------------------------------------------------------------------------------
D|-----------------------------------------------------------------------------------------
A|-----5--------------------7--------------------8--------------------10----------12-------
D|-----------------------------------------------------------------------------------------

                x4
E|-------------|------------------------------
B|-------------|------------------------------
G|-------------|------------------------------
D|-------------|------------------------------
A|-----5-------|---12-11-------8--8--8--7-----
D|-------------|---12-11-------8--8--8--7-----

E|-----------------------------------------------------------------------------------------
B|-----------------------------------------------------------------------------------------
G|-----------------------------------------------------------------------------------------
D|-----------------------------------------------------------------------------------------
A|-----5--------------------4--------------------8--------------------10----------12-------
D|-----------------------------------------------------------------------------------------

E|-----------------------------------------------------------------------------------------
B|-----------------------------------------------------------------------------------------
G|-----------------------------------------------------------------------------------------
D|-----------------------------------------------------------------------------------------
A|-----5--------------5--7--4--------------4--5--8-----------8-----8--7-----12-------------
D|--------------------------------------------------------------------------------12----12-

E|-----------------------------------------------------------------------------------------
B|-----------------------------------------------------------------------------------------
G|-----------------------------------------------------------------------------------------
D|-----------------------------------------------------------------------------------------
A|-----------5-----7-----4-----------4-----5-----8--------8-----10----------12-------------
D|--------------------------------------------------------------------11----------12----12-

E|-----------------------------------------------------------------------------------------
B|-----------------------------------------------------------------------------------------
G|-----------------------------------------------------------------------------------------
D|-----------------------------------------------------------------------------------------
A|-----------5-----7-----4-----------4-----5-----8-----------8-----8--7-----12-------------
D|--------------------------------------------------------------------------------12----12-

E|--------------------------------------------------------
B|--------------------------------------------------------
G|--------------------------------------------------------
D|--------------------------------------------------------
A|-----5-----------------7-----8-----------8--------------
D|-----------------------------------------8-----------3--

x3
E|-----------------------------
B|-----------------------------
G|-----------------------------
D|-----------------------------
A|-----5--7--7--8--8--7--7--5--
D|-----------------------------

x9
E|-----------------------------------------
B|-----------------------------------------
G|-----------------------------------------
D|-----------------------------------------
A|-----------------------5-----8--7--7--5--
D|-----7--8--7-----8--7--------------------

About Magnus Skylstad - Magnus ├ůserud Skylstad is an affiliate of fellow Norwegian and singer-songwriter Aurora . He currently performs as percussionist and drummer for her live band . When he met her, he said: "My manager Geir Luedy asked me if I could do a session with a young woman, we booked the studio and we recorded 5 or 6 of their songs with just the vocals and piano" ORBO & The Longshots, William Hut, Josefin Winther, November Homecoming, Monica Heldal, Magnus Skylstad's music is influenced by genre(s) - electropop folktronica.

tabs and chords, guitar tabs, music transcription, music technology, deep learning, music information retrieval, transcribe into tabs & chords, chordify, music renditions, songsterr, reverbnation, tabulature, bollywood chords, ultimate guitar, yousician, guitar lessons, acoustic guitar, electric guitar, guitar tuner, 911 tabs