Bass Tabs for Foo Fighters - The Pretender

Foo Fighters - The Pretender

Intro has no bass

Verse
G|-----------------------------------------------
D|-----------------------------------------------
A|-----------------------------------------------
E|--5--5-----5--5--5--5-----5--5-----5--5--5--5--

G|-----------------------------------------------
D|-----------------------------------------------
A|-----------------------------------------------
E|--2--2-----2--2--2--2-----1--1-----1--1--1--1--

G|--------------------------------------------------------------------------
D|--------------------------------------------------------------------------
A|--------------------------------------------------------------------------
E|--5--5--5--5--5--5--5--5--2--2--2--2--2--2--2--2--1--1--1--1--1--1--0--3--

G|--------------------------------------------------
D|--------------------------------------------------
A|--5--5--5--5--7--7--7--7--8--8--8--8--10-10-10-10-
E|--------------------------------------------------

Chorus
G|-----------------------------------------------------------------
D|-----------------------------------------------------------------
A|-----------------------------------------------------------------
E|--5--5--5--5--5--5--5--5--5--5--5--7--7--7--8--8--8--8--5--5--5--

G|-----------------------------------------------------------------
D|-----------------------------------------------------------------
A|--9--9--9--9--9--9--9--9--9--9--9--8--8--8--8--8--8--8--8--8--8--
E|-----------------------------------------------------------------

Bridge
G|--------------------------------------------------
D|--------------------------------------------------
A|--------------------------------------------------
E|--5--------5--------5--------5--------5--------5--

G|-----------------------------------------------------
D|-----------------------------------------------------
A|-----------------------------------------------------
E|--5--5--5--5--5--5--5--5--5--5--5--5--5--5--5--5--5--

G|-----------------------------------------------
D|-----------------------------------------------
A|-----3--4--5--------------3--4--5--------------
E|--5-----------3--4--5--5-----------3--4--5--5--

Ending
G|-----------------------------------------
D|-----------------------------------------
A|-----------------------------------------
E|--5--5--5--5--5--5--5--5--5--5--5--5--5--

G|--------------------------------------------------------------------------
D|--------------------------------------------------------------------------
A|--------3--4--5--------------3--4--5--------------------------------------
E|--5--5-----------3--4--5--5-----------3--4--5-----5--5--------5--5--5--5--
tabs and chords, guitar tabs, music transcription, music technology, deep learning, music information retrieval, transcribe into tabs & chords, chordify, music renditions, songsterr, reverbnation, tabulature, bollywood chords, ultimate guitar, yousician, guitar lessons, acoustic guitar, electric guitar, guitar tuner, 911 tabs