Bass Tabs for Foo Fighters - No Way Back

Foo Fighters - No Way Back

Verse
G|-----------------------------------------
D|-----------------------------------------
A|--------------------5--------------------
E|--0--0--0--0--0--0-----0--0--0--0--0--0--

G|-----------------------------------------
D|-----------------------------------------
A|-----------------------------------------
E|--5--5--5--5--5--5--5--5--5--5--5--5--5--

Chorus
G|--------------------------------------------
D|--------------------------------------------
A|--5--5--5--5--5--5--5-----------------------
E|-----------------------5--5--5--5--5--5--5--
                                                         2x
G|--------------------------------------------
D|--------------------------------------------
A|--7--7--7--7--7--7--7-----------------------
E|-----------------------7--7--7--7--7--7--7--

G|--------------
D|--------------
A|-----------5--
E|--3--2--0-----

Bridge & Guitar Solo
G|-----------------
D|-----------------
A|-----------5--7--
E|--0--0-----------

G|--------------------------------------
D|--------------------------------------  4x
A|--------------------------------------
E|--5--5--5--5--5--5--5--5--5--5--5--5--

G|--------------------
D|--------------------
A|--------------------
E|--0--0--0--0--0--0--

Ending
G|--------------------------------------------------------------------
D|--------------------------------------------------------------------
A|--------------------5--7-----------------5--7-----------------5--7--
E|--0--0--0--0--0--0--------0--0--0--0--0-----------0--0--0--0--------

G|-----------------------
D|-----------------------
A|--------------------5--
E|--0--0--0--0--0--0-----
tabs and chords, guitar tabs, music transcription, music technology, deep learning, music information retrieval, transcribe into tabs & chords, chordify, music renditions, songsterr, reverbnation, tabulature, bollywood chords, ultimate guitar, yousician, guitar lessons, acoustic guitar, electric guitar, guitar tuner, 911 tabs